Guitar Tabs, Chords and Lyrics
Server problems seems to be fixed. Chordie has been experiencing problems with songs disappearing. These issues now seems to be fixed, but still verifying the fix. If you find anything strange, please email admin@chordie.com.


Dripping Faucet  Catch 22

Catch 22 - dripping faucet
I tabbed this in standard because that's how I play it, but its actually played in drop d, but really the only time you use it is for the Dm chords in the bridge and if you have a low d in the bass then it will sound the same anyways
Intro x3
[Am] [Dm] [E] [Am]  
 
 e--5---10--0--5--------
 B--5---10--0--5--------
 G--5---10--1--5-------- the notes in () are optional, I play them
 D-(7)-(12)---(7)------- but the chords sound the same without
 A---------------------- them if you don't want to
 E----------------------

Verse 1st 2nd
|:Am | Dm | E:| Am | A G |
 
 e-|-5--|-10-|-0-|-5--|-----|
 B-|-5--|-10-|-0-|-5--|-----|
 G-|-5--|-10-|-1-|-5--|-2-5-|
 D-|(7)-|(12)|---|(7)-|-2-5-|
 A-|----|----|---|----|-0-3-|
 E-|----|----|---|----|-----|

Pre-Chorus
 
 e--10--0--------------------10--0------------------|
 B--10--0--------------------10--0------------------|
 G--10--1--------------------10--1------------------|
 D-(12)----5-77-5-77-5-77-5-(12)------5-77-5-77-575-|
 A---------5-77-5-77-5-77-5-----------5-77-5-77-575-|
 E---------3-55-3-55-3-55-3-----------3-55-3-55-353-|

Chorus
 
 e---------------------------------------|---------------------|
 B---------------------------------------|---------------------|
 G-------------------------------542-542-|---------------------|
 D-3--5535--777777777--3--5535---542-542-|-3-5535--3-5535-3-5--|
 A-3--5535--777777777--3--5535---320-320-|-3-5535--3-5535-3-5--|
 E-1--3313--555555555--1--3313-----------|-1-3313--1-3313-1-3--|

Intro x2, Verse, Pre-Chorus, Chorus
Post-Chorus
 
 e------------|-------------|
 B------------|-------------|
 G-7--2-----2-|-7--2--9--9--|
 D-7--2--2--2-|-7--2--9--9--|
 A-5--0--2--0-|-5--0--7--7--|
 E-------0----|-------------|

Bridge (after bass break)
 
 e---------------|
 B---------------|
 G------7--9--2--|
 D--/7--7--9--2--|
 A--/7--5--7--0--|
 E--/5-----------|

Verse, Pre-Chorus, Chorus, Post-Chorus, Horn Break, Bridge x3
[End]  
 
 e------------|
 B------------|
 G------------|
 D-7-7-7-5-7--|
 A-7-7-7-5-7--|
 E-5-5-5-3-5--|


Important: The song above is NOT stored on the Chordie server. The original song is hosted at www.xguitar.com. Chordie works as a search engine and provides on-the-fly formatting. Chordie does not index songs against artists'/composers' will. To remove this song please click here.

Text color:
Chord color:
Chord grids: 
Font size:    
Page size: 

Am Dm E
Rate #1 of 1 versions

Login - add to songbook

SHARE PAGE  




You need to log in to post comments