Guitar Tabs, Chords and Lyrics
Major upgrade!! After one year development the new version of Chordie is now online! Please give feedback.


Root   Deftones

 
 A.H.---------------------------------------|
 E-------------------------------------------|----------|
 B-------------------------------------------|----------|
 G------9-9---------------------------------.|-1-1--1-1-|
 D----------9-9-10-10-12-12-10-10-9-9-------.|-1-1--1-1-|
 A--7-7-------------------------------10-10--|-1-1--1-1-|
 E-------------------------------------------|-0-0--0-0-|
 P.M.|----------|
 E----------------------------------------------------------------|
 B----------------------------------------------------------------|
 G-----4-4-----------------------------4-4-----------------------.|
 D-----2-2-4-4-5-5-7-7-5-5-4-4---------2-2-4-4-5-5-7-7-5-5-4-4---.|
 A-2-2-2-2-2-2-3-3-5-5-3-3-2-2-5-5-2-2-2-2-2-2-3-3-5-5-3-3-2-2-5--|
 E-0-0-0-0---------------------3-3-0-0-0-0---------------------3--|
 E------------------------------------------------------0---------|
 B------------------------------------------------------0---------|
 G--1----1-1-1-1-1----1-1-1-1-1----1-1--1-1----1-1-1-1---------0--|
 D--1----1-1-1-1-1----1-1-1-1-1----1-1--1-1----1-1-1-1------------|
 A--1----1-1-1-1-1----1-1-1-1-1----1-1--1-1----1-1-1-1------------|
 E--0----0-0-0-0-0----0-0-0-0-0----0-0--0-0----0-0-0-0------------|
 P.M.|-------| |-------| |------| |-------|

 


 


 


 Verse


 

 
 E------------------------------------------------|
 B------------------------------------------------|
 G--x-x------9-9---------------------------------.|
 D--x-x----------9-9-10-10-12-12-10-10-9-9-------.|
 A--x-x--7-7-------------------------------10-10--|
 D------------------------------------------------|
 P.M. |----------------------------------------|
 E------------------------------------------------------|
 B------------------------------------------------------|
 G----------9-9-----------------------------------------|
 D--------------9-9-10-10-12-12-10-10-9-9---------------|
 A------7-7-------------------------------10-10-10-10---|
 D------------------------------------------------------|
 P.M. |----------------------------------------------|
 E------------------------------------------------|
 B------------------------------------------------|
 G-----------9-9---------------------------------.|
 D---------------9-9-10-10-12-12-10-10-9-9-------.|
 A-------7-7-------------------------------10-10--|
 D------------------------------------------------|
 P.M. |-----------------------------------------|
 A.H.|-----------------------------------------------------------------------|
 E------------------------------------------------------------------------------------------|
 B------------------------------------------------------------------------------------------|
 G-----------9-9-------------------------------------9-9------------------------------------|
 D---------------9-9-10-10-12-12-10-10-9-9---------------9-9-10-10-12-12-10-10-9-9----------|
 A-------7-7-------------------------------10-10-7-7-------------------------------10-10----|
 D---------------------------------------------------------------------------------------x\-|
 P.M. |---------|

 


 


 Chorus


 

 
 E----------------------------------------------------------------|
 B----------------------------------------------------------------|
 G-----4-4-----------------------------4-4-----------------------.|
 D-----2-2-4-4-5-5-7-7-5-5-4-4---------2-2-4-4-5-5-7-7-5-5-4-4---.|
 A-2-2-2-2-2-2-3-3-5-5-3-3-2-2-5-5-2-2-2-2-2-2-3-3-5-5-3-3-2-2-5--|
 E-0-0-0-0---------------------3-3-0-0-0-0---------------------3--|
 E---------------------|
 B---------------------|
 G-----1-1-1-1-1-1-1-1-|
 D-----1-1-1-1-1-1-1-1-|
 A-----1-1-1-1-1-1-1-1-|
 E-----0-0-0-0-0-0-0-0-|
 P.M.|---------------|

 


 


 Fill 1


 

 
 E--0---------|
 B--0---------|
 G----------0-|
 D------------|
 A------------|
 E------------|

 


 


 Mid Section


 

 
 E--------------------------------------------------------------------------------------------|
 B--------------------------------------------------------------------------------------------|
 G------------------------1-1-1-1---1-1-1-1---4-------------------------1-1-1-1---1-1-1-1---1.|
 D------------------------1-1-1-1---1-1-1-1---2-------------------------1-1-1-1---1-1-1-1---1.|
 A-8-7-7-6-6-5-5-4-3-4-3--1-1-1-1-2-1-1-1-1-2-2--8-7-7-6-6-5-5-4-3-4-1--1-1-1-1-2-1-1-1-1-2-1-|
 E-6\5-5\4-4\3-3\2-1/2\1--0-0-0-0-0-0-0-0-0-0-0--6\5-5\4-4\3-3\2-1/2\1--0-0-0-0-0-0-0-0-0-0-0-|
 P.M.|-------| |------| |------| |------|

 


 


 \/


 

 
 E------------------------------------------------------0------------0-----------0----|
 B------------------------------------------------------0--------------0---------0----|
 G--1----1-1-1-1-1----1-1-1-1-1----1-1--1-1----1-1-1-1------------0------0-------0----|
 D--1----1-1-1-1-1----1-1-1-1-1----1-1--1-1----1-1-1-1--------2----------2-------2----|
 A--1----1-1-1-1-1----1-1-1-1-1----1-1--1-1----1-1-1-1---------------------------2----|
 E--0----0-0-0-0-0----0-0-0-0-0----0-0--0-0----0-0-0-0----------0----------------0----|
 P.M.|-------| |-------| |------| |-------|

 


 


 [/] [/] [/] [/] [/] [/] [/] [/] [/] [/] [/] [/]  

 
 E-----0-|--/--/---/--/--/--/--/--/---/--/--/--/------0------0--|
 B-----0-|--/--/---/--/--/--/--/--/---/--/--/--/------0------0--|
 G-----0-|--9-10--13-14-13-10--9-10--13-14-13-10------0------0-.|
 D-----0-|--------------------------------------------0------0-.|
 A-----0-|--7--8--11-12-11--8--7--8--11-12-11--8------0------0--|
 E-0-0-0-|----------------------------------------0-0-0--0-0-0--|

 


 


 Outro /\


 

 
 E---------------0--|
 B---------------0--|
 G-2-2-2--0-0----2--|
 D-3-3-3--0-0----3--|
 A-3-3-3--0-0----3--|
 E-1-1-1--1-1----1--|


Important: The song above is NOT stored on the Chordie server. The original song is hosted at www.xguitar.com. Chordie works as a search engine and provides on-the-fly formatting. Chordie does not index songs against artists'/composers' will. To remove this song please click here.

This song is displayed as text-only. Transposing and tuning is only available for chordpro-songs.
Rate #1 of 1 versions

Jango Player

Login - add to songbook

SHARE PAGE  




You need to log in to post comments