Guitar Tabs, Chords and Lyrics
Major upgrade!! After one year development the new version of Chordie is now online! Please give feedback.


New Way Home   Foo Fighters

 
 e-----0-0-0-0-------------------------------------------
 b-----2-2-2-2-------------------------------------------
 g-----2-2-2-2--(14 times)------------------------------- X 2
 d-----2-2-2-2---------------4-/-7-/-9-/-11/-12----------
 a-----0-0-0-0-------------------------------------------
 E---------------------------2-/-5-/-7-/-9-/-10----------

 


 


 Ha[(A)]ve you found your way around, the[(F#)] down and out,


 I[(G)] know it must seem long[(D)], so lo[(C)]ng,


 I[(A)]'m still tryin' to keep this time, [(F#)]from runnin' out,


 H[(G)]ead down, always moving [(D)]on and on[(C)] and on......


 (Repeat intro)


 I [(A)]never heard this warning, [(F#)]another early morning,


 wa[(G)]kes me, breaks me [(D)]into..[(C)]...


 If[(A)] you can manage me well, I[(F#)]'ll try to manage you,


 bu[(G)]t lately, it's all I eve[(D)]r do...[(C)]..


 CHORUS-


 I [(A)]Felt like t[(F)]his on my way[(D)] home,[(G)] [(A)(F)]


 I'm not scared, I [(A)]pass...b[(F)]oats and the k[(D)]ingdome..[(G)]..


 [(A)(F)] I'm not scare[(D)]d....


 


 (PAUSE)


 BRIDGE-


 I[(A)]'ll neve[(E)]r tell you these secrets I'm holding,


 I[(A)] know [(E)]these things must bore you, I can't find a[(F#)]nother way....[(D)]


 I[(A)]'ll neve[(E)]r tell you these secrets I'm holding,


 I[(A)] love [(E)]this leash that holds me, wh[(F#)]en I try to[(G)] run away......


 (PAUSE)


 repeat over chorus as song fades away at end


 

 
 e|--------------------------------------------------------
 B|-4b5-4-2-4b5-4-2----7----------7-4-----2--5-------------
 G|----------------------4-7----5-------3------------------
 D|--------------------------------------------------------
 A|--------------------------------------------------------
 E|--------------------------------------------------------


Important: The song above is NOT stored on the Chordie server. The original song is hosted at www.xguitar.com. Chordie works as a search engine and provides on-the-fly formatting. Chordie does not index songs against artists'/composers' will. To remove this song please click here.

This song is displayed as text-only. Transposing and tuning is only available for chordpro-songs.
Rate #1 of 1 versions

Jango Player

Login - add to songbook

SHARE PAGE  




You need to log in to post comments