Guitar Tabs, Chords and Lyrics
Major upgrade!! After one year development the new version of Chordie is now online! Please give feedback.


Walking After You  Foo Fighters

Tab for "Walking After You" on The Colour and the Shape By the Foo Fighters
Tabbed by Matt Blair at 72253.3625@compuserve.com
chords:
[Ema] [E/G#] [Ama] [BbMib5] [B7] [F#Ma] [C#mi] 
 
 e----------0------0----0----0-------0-----0-----4-------------
 B----------0------0----2----2-------0-----0-----5-------------
 G----------1------4----2----3-------2-----3-----6-------------
 D----------2------2----2----2-------1-----4-----6-------------
 A----------2------x----0----1-------2-----4-----4-------------
 E----------0------4----x----x-------x-----2-----x-------------

Intro (Guitar 1)
[Ema] [Ema] [Ema] [Ema] 
Intro (Guitar 2)
 
 e---------------------0---2---4---0---5---4---2---0---4-------
 B-----------------------0---0---0---0---0---0---0---0---------
 G---------------------1---2---4---1---6---4---2---1---4-------
 D-------------------------------------------------------------
 A-------------------------------------------------------------
 E-------------------------------------------------------------

Verse
[E] [E/G#] [A] [Bbmib5] [A] 
Tonight im tangled in my blanket of clouds
[B7]  
Dreaming aloud
[E] [E/G#] [A] [Bbmib5] [A] 
Things just wont do without you matter of fact
[B7]  
Im on your back
[E] [E/G#] [A] [Bbmib5] [A] 
Im on your back
[A]  
Im on your back
E & Guitar 2 Riff
Chorus
[F#] [A]  
If you walk out on me
[E]  
Im walking after you
[F#] [A]  
If you walk out on me
[E]  
Im walking after you
Verse 2 and Chorus 2 are the same as the first
Post Chorus: After Chorus 2
[C#mi] [A]  
Another heart cracked in two
[F#ma]  
Im on your back
Interlude
[E] [C#mi] [A] [F#ma]  
Guitar 2 Plays riff 3x
Verse 3: Play first third of verse (play chords through one time)
Chorus 3: Play one third longer (play chords through 3x instead of 2)
Then play post chorus
Then play interlude strumming F#ma once and stopping.
Thats the whole song! Email me with any questions or comments.

Important: The song above is NOT stored on the Chordie server. The original song is hosted at www.xguitar.com. Chordie works as a search engine and provides on-the-fly formatting. Chordie does not index songs against artists'/composers' will. To remove this song please click here.

Text color:
Chord color:
Chord grids: 
Font size:    
Page size: 

A B7 E E/G# F#
Rate #3 of 10 versions

Login - add to songbook

SHARE PAGE  




You need to log in to post comments