Guitar Tabs, Chords and Lyrics
Major upgrade!! After one year development the new version of Chordie is now online! Please give feedback.


Aurora  Foo Fighters

Foo Fighters - Aurora
(Normal Tuning)
All chords listed above tablines are played by another guitar.
The tricky part of this song is that the main guitar riff is played
on a different time scale to the bass and rhythm guitar, so while
it sounds like the riff changes it doesn't, trust me, I saw the
Foo Fighters live last night.
Chord Chart
e||[Amaj7]--0--||
B||--2--||
G||--1--||
D||--2--||
A||--0--||
E||--x--||
Intro/Verse (With delay effect)
(Gtr. 1)
 
 e||------------------------------||
 b||------------------------------||
 g||---------6-7----9--------6-7--||
 d||--7-6-7-------9---9---7-------||
 a||------------------------------||
 e||------------------------------||

(Gtr. 2)
Intro Verse
 
 e||----------------------------------------------|---------------------------||
 B||----------------------------------------------|---------------------------||
 G||--14=================14---14-----13-----13----|---------------------------||
 D||--14=================--14---14------14-----14-|---------------------------||
 A||--12=================-------------------------|-0--0--0--0--0--0--0--0-0--||
 E||----------------------------------------------|---------------------------||

Chorus
[A] [Amaj7] [A]  
 
 e|-------------------------------------------------------|
 b|-------------------------------------------------------|
 g|-14-14-14-14-14-13-13-13-13-13-13-11-11-11-14-14-14-14-|
 d|-------------------------------------------------------|
 a|-12-12-12-12-12-11-11-11-11-11-11--9--9--9-12-12-12-12-|
 e|-------------------------------------------------------|

[A] [Amaj7] [A]  
 
 e|---------------------------------------------------|
 b|---------------------------------------------------|
 g|-14-14-14-14-14-13-13-13-13-13-13-11-11-11-9-9-9-9-|
 d|---------------------------------------------------|
 a|-12-12-12-12-12-11-11-11-11-11-11--9--9--9-7-7-7-7-|
 e|---------------------------------------------------|
 e|-----------------------------------------------|
 b|-----------------------------------------------|
 g|-7--7---7-7-7-9-9-9-11-11-11-11-14-14-14-13-14-|
 d|-----------------------------------------------|
 a|-5--5---5-5-5-7-7-7--9--9--9--9-12-12-12-11-12-|
 e|-----------------------------------------------|

[A] [Amaj7] [A]  
 
 e|---------------------------------------------------|
 b|---------------------------------------------------|
 g|-14-14-14-14-14-13-13-13-13-13-13-11-11-11-9-9-9-9-|
 d|---------------------------------------------------|
 a|-12-12-12-12-12-11-11-11-11-11-11--9--9--9-7-7-7-7-|
 e|---------------------------------------------------|

[D] [A] [D] [A]  
 
 e|--------------------------------|----------------------------|-1-1-1-1-3-3-3-3-----------|
 B|--------------------------------|----------------------------|-1-1-1-1-3-3-3-3-2---3-2-0-|
 G|-----------------2-1------------|-----------------2-1--------|-2-2-2-2-0-0-0-0-2---------|
 D|---------------------4-2--------|---------------------4-2-2--|-3-3-3-3-0-0-0-0-2---------|
 A|-5-4-2-0-2-4-5------------4-2-0-|-5-4-2-0-2-4-5--------------|-3-3-3-3-2-2-2-2-0---------|
 E|--------------------------------|----------------------------|-1-1-1-1-3-3-3-3-----------|

(2x)
Bridge
 
 e||----------------------------|-0-0-0-0-0-0-0-------------|-1-1-1-1-3----------------||
 b||----------------------------|-0-0-0-0-0-0-0-------------|-1-1-1-1-3----------------||
 g||----------------------------|-1-1-1-1-1-1-1-------------|-2-2-2-2-0----------------||
 d||--4-4-4-4-4-4-4-------------|-2-2-2-2-2-2-2-------------|-3-3-3-3-0----------------||
 a||--4-4-4-4-4-4-4-4-4-4-4-2-0-|-2-2-2-2-2-2-2-4-4-4-4-2-0-|-3-3-3-3-2--*4-4-4-4-2-0--||
 e||--2-2-2-2-2-2-2-------------|-0-0-0-0-0-0-0-------------|-1-1-1-1-3----------------||

(*Not second time)
Outro
 
 e|----------------------------|
 B|----------------------------|
 G|--------6-7----9--------6-7-|
 D|-7-6-7-------9---9---7------|
 A|----------------------------|
 E|----------------------------|

[A] [Amaj7] [A] [Amaj7]  
 
 e|-----------------------------------------------------------------------|
 B|-----------------------------------------------------------------------|
 G|-14-14-14-14-14-13-13-13-11-9-9-9--14-14-14-14-14-16-16-16-18-18-18-18-|
 D|-----------------------------------------------------------------------|
 A|-12-12-12-12-12-11-11-11-9--7-7-7--12-12-12-12-12-14-14-14-16-16-16-16-|
 E|-----------------------------------------------------------------------|

(2x)
(Gtr. 1)
 
 e|----------------------------|
 B|----------------------------|
 G|--------6-7----9--------6-7-|
 D|-7-6-7-------9---9---7------|
 A|----------------------------|
 E|----------------------------|

(Gtr. 2)
 
 e|---------------------------|
 B|---------------------------|
 G|-2--2--2--2--2--2--2--2--2-|
 D|-2--2--2--2--2--2--2--2--2-|
 A|-0--0--0--0--0--0--0--0--0-|
 E|---------------------------|

_______________________
www.foofighterstabs.com

Important: The song above is NOT stored on the Chordie server. The original song is hosted at www.xguitar.com. Chordie works as a search engine and provides on-the-fly formatting. Chordie does not index songs against artists'/composers' will. To remove this song please click here.

Text color:
Chord color:
Chord grids: 
Font size:    
Page size: 

A Amaj7 D
Rate #9 of 9 versions

Jango Player

Login - add to songbook

SHARE PAGE  




You need to log in to post comments