Guitar Tabs, Chords and Lyrics
Major upgrade!! After one year development the new version of Chordie is now online! Please give feedback.


My Head  Goldfinger

Date: Sun, 12 Oct 1997 15:16:16 -0300
From: Patrick Thomas <pathomas@videotron.ca>
Subject: Tab "My Head" Artist "Goldfinger"
MY HEAD
(John Feldmann, Charlie Paulson, Simon Williams)
Artist: Goldfinger
Album: Hang-Ups
Tabbed by Patrick Thomas
E-Mail: pathomas@videotron.ca
A5 C#5 D5 E5 B5 G#5 Em G5 A* C#* D*
 
 |---| |---| |---| |---| |---| |---| |---| |---| |-5-| |-4-| |-5-|
 |---| |---| |---| |---| |---| |---| |---| |---| |-5-| |-5-| |-7-|
 |---| |-6-| |-7-| |-9-| |---| |---| |---| |---| |-6-| |-6-| |-7-|
 |-7-| |-6-| |-7-| |-9-| |-4-| |-6-| |-2-| |-5-| |-7-| |-6-| |-7-|
 |-7-| |-4-| |-5-| |-7-| |-4-| |-6-| |-2-| |-5-| |---| |---| |---|
 |-5-| |---| |---| |---| |-2-| |-4-| |-0-| |-3-| |---| |---| |---| 

~=vibrato
Verse1:
(Clean Tone)
[A5]Where Are You now I Want To
[C#5]Talk To You.
[D5]I'm Sitting Here alone
[E5]Waiting By The Phone.(feedback)
(Distortion)
[A5]Where Are You Now I Want To
[C#5]Talk To You.
[D5]If Only You Were Home
[E5]I Wouldn't Be Alone. I Wait For You!
A5-C#5-F#5-G#5-Em (x2)
Verse2:
(Palm Mute)
[A5]Where Are You Now Are You Just
[C#5]Toying With Me?
[D5]Do You Need Me To Play
[E5]All Your High School Games?
[A5]Where Are You now, I Guess I'll
[C#5]Try Once More.
[D5]I Don't Have Much To Say But It's
[E5]The Tenth Call That I Made.
Chorus:
[F#5]And It's Ringing In My
[Em]Head
Fill#1
 
 |-----------------|
 |-----------------|
 |-----------------|
 |-----------------|
 |-----------------|
 |-5-5-4-4-2-2-4-4-|

[F#5]Yeah The Last Thing That You
[Em]Said Now.
Fill#1
Listen To Me.
A5-C#5-F#5-G#5-Em (x2)
(ska beat)
A*-C#*-D*-C#*
 
 |-----------------------------------------------------------------------------------------------|
 |-----------------------------------------------------------------------------------------------|
 |-----------------------------------------------------------------------------------------------|
 |-----------------------------------------------------------------------------------------------|
 |-----------------------------------------------------------------------------------------------|
 |-9~-7~--5~--4~----4~--4~---5~--2~----7~-----4~--0----------------------------------------------|

I Ask You Just. What Is It You've Tas-ted
[A5]You Answers
[C#5]Hushed
[D5]I'm Wasted So
[E5]Wasted.
Chorus:
[F#5]And It's Ringing In My
[Em]Head
Fill#1
(It's In My Head)
[F#5]Yeah The Last Thing That You
[Em]Said Now.
Fill#1
[F#5]And All The Promises You
[Em]Made.
Fill#1
(It's In My Head)
[F#5]Were The Others Just The
[Em]Same now.
Fill#1
Listen To Me.
[A5-C#5-F#5-G#5-Em]  
[F#5]All Those
[G5]Promises They
[D5]Never Once
[A5]Collide
Fill#2 (Play Along The Chord)
 
 |---------|
 |---------|
 |2----3---|
 |--2----3-|
 |---------|
 |---------|

[F#5]Make Me Believe
[G5]You Were
[D5]Home In Bed Last
[E5]Night
[D5]Where Did You Sleep Last
[E5]Night?
Verse#3(Clean Tone)
[A5]Where Are You Now I Want To
[C#5]Talk To You.
[D5]This Obsession Here Today
[E5]Is It Pushing You Away?
[A5]Where Are You Now I Feel Like I'm
[C#5]Stalking You.
[D5]Is It Something That I Lack?
[E5]Why Won't You Ever Call Me Back?
[F#5]Still It's Ringing In My
[Em]Head
Fill#1
(It's In My Head)
[F#5]Yeah The Last Thing That You
[Em]Said Now.
Fill#1
(Still In My Head)
[F#5]And All The Promises You
[Em]Made.
Fill#1
(It's In My Head)
[F#5]Were The Others Just The
[Em]Same now.
Fill#1
Listen To Me.
A5-C#5-F#5-G#5-Em (x4)

Important: The song above is NOT stored on the Chordie server. The original song is hosted at www.xguitar.com. Chordie works as a search engine and provides on-the-fly formatting. Chordie does not index songs against artists'/composers' will. To remove this song please click here.

Text color:
Chord color:
Chord grids: 
Font size:    
Page size: 

A5 C#5 D5 E5 Em F#5 G5
Rate #3 of 7 versions

Jango Player

Login - add to songbook

SHARE PAGE  



You need to log in to post comments