Guitar Tabs, Chords and Lyrics
Major upgrade!! After one year development the new version of Chordie is now online! Please give feedback.


January  Goldfinger

Song: January
Band: Goldfinger
Album: Open Your Eyes (2002)
Written by John Feldmann and B. Madden
Tabbed by Gomer (Gomer188@hotmail.com)
* - let chord\\note ring out
X - guitar rake (mute strings with fretting hand and strum strings)
x - mute with fretting hand
p.m. - palm mute
\\ - slide down fretboard
/ - slide up fretboard
() - sounds like note is being played but it's not
< - harmonic
Every staff Both Guitars unless otherwise noted.
INTRO:
Guitar 1:
[(E)]  
 
 e |-----------------------------------------
 B |-----------------------------------------
 G |-----------------------------------------
 D |----------------14------------14---------
 A |------14-----14--------14------------14--
 E |--12-----12---------12-----12----12------

[(A)]  
 
 e ----------------------------------------|
 B ----------------------------------------|
 G --------------14-------------14---------| Play 2x
 D -----14----14---------14------------14--|
 A --12----12---------12-----12----12------|
 E ----------------------------------------|

Guitar 2:
[E] [A]  
 
 e |--0----------0--|
 B |--0----------0--|
 G |--1----------2--| Play 2x
 D |--2----------2--|
 A |--2*---------0*-|
 E |----------------|

VERSE 1:
(I Don't know true name of chords)
[E] [A]  
 
 e |--0-0-0-0--0-0-0-0--0-0-0-0--0-0-0-0--|
 B |--0-0-0-0--0-0-0-0--0-0-0-0--0-0-0-0--|
 G |--1-1-1-1--1-1-1-1--2-2-2-2--2-2-2-2--| Play 4x
 D |--2-2-2-2--2-2-2-2--2-2-2-2--2-2-2-2--|
 A |--2-2-2-2--2-2-2-2--0-0-0-0--0-0-0-0--|
 E |--------------------------------------|

PRE-CHORUS 1:
Guitar 1:
[B] [A]  
 
 e |--0-0-0-0---0-0-0-0----0-0-0-0---0-0-0-0--|
 B |--0-0-0-0---0-0-0-0----0-0-0-0---0-0-0-0--|
 G |--4-4-4-4---4-4-4-4----2-2-2-2---2-2-2-2--| Play 1.5x
 D |--4-4-4-4---4-4-4-4----2-2-2-2---2-2-2-2--|
 A |--2-2-2-2---2-2-2-2----0-0-0-0---0-0-0-0--|
 E |------------------------------------------|

Guitar 2:
 
 e |----------------------|
 B |------7---------7-9---|
 G |--------9-------------| Play 1.5x
 D |----------------------|
 A |----9---------7-------|
 E |--7---------5---------|

After this top part play this:
[A] [E] [B] [E] [B] [E]  
 
 e |--0--0--0----0--0--0--|
 B |--0--0--0----0--0--0--|
 G |--2--1--4----1--4--1--|
 D |--2--2--4----2--4--2--|
 A |--0--2--2----2--2--2--|
 E |----------------------|

CHORUS 1:
[E] [A]  
 
 e |--0-0-0-0---0-0-0-0----0-0-0-0---0-0-0-0--
 B |--0-0-0-0---0-0-0-0----2-2-2-2---2-2-2-2--
 G |--1-1-1-1---1-1-1-1----2-2-2-2---2-2-2-2--
 D |--2-2-2-2---2-2-2-2----2-2-2-2---2-2-2-2--
 A |--2-2-2-2---2-2-2-2----0-0-0-0---0-0-0-0--
 E |------------------------------------------

[B] [A]  
 
 e ------------------------0-0-0-0---0-0-0-0--|
 B ---4-4-4-4---4-4-4-4----2-2-2-2---2-2-2-2--|
 G ---4-4-4-4---4-4-4-4----2-2-2-2---2-2-2-2--| Play 2x
 D ---4-4-4-4---4-4-4-4----2-2-2-2---2-2-2-2--|
 A ---2-2-2-2---2-2-2-2----0-0-0-0---0-0-0-0--|
 E -------------------------------------------|

POST CHORUS:
Guitar 1 Repeat INTRO, except play 1x
Guitar 2:
Light Distortion
 
 e |--------------------------------------------------------------------|
 B |--------------------------------------------------------------------|
 G |--------------------------------------------------------------------|
 D |--2-2-2-2-2-2-2-2-2-2-2-2-2-2-2-2--2-2-2-2-2-2-2-2-2-2-2-2-2-2-2-2--|
 A |--2-2-2-2-2-2-2-2-2-2-2-2-2-2-2-2--0-0-0-0-0-0-0-0-0-0-0-0-0-0-0-0--|
 E |--------------------------------------------------------------------|

p.m. ............................... ...............................
VERSE 2:
Guitar 1 Repeats VERSE 1 + PRE-CHORUS 1
Guitar 2:
 
 e |------12---------12------------12---------12-----|
 B |---------12---------12------------12---------12--| Play throughout
 G |--(-)--------(-)------------14---------14--------| VERSE 2 and
 D |-------------------------------------------------| PRE-CHORUS 2
 A |-------------------------------------------------|
 E |-------------------------------------------------|

CHORUS 2:
Repeat CHORUS 1
BRIDGE 1:
*Distored Guitars
[C#5] [G#5] [A5] [E5] [D#5]  
 
 e |---------------------------------------------------------------------
 B |---------------------------------------------------------------------
 G |--6--6--6-6-6----------------------------9-9--8-8--6-6-6-6-----------
 D |--6--6--6-6-6--6--6--6-6-6--7-7-X-X-7-7--9-9--8-8--6-6-6-6--6-6-6-6--
 A |--4--4--4-4-6--6--6--6-6-6--7-7-X-X-7-7--7-7--6-6--4-4-4-4--6-6-6-6--
 E |---------------4--4--4-4-4--5-5-X-X-5-5---------------------4-4-4-4--

[A5] [B5]  
 
 e ---------------------------------------------------------------------|
 B ---------------------------------------------------------------------|
 G ---------------------------------------------------------------------|
 D --7--7--7-7-7--7--7--7-7-7--9-9-9-9-9-9-9-9-9-9-9-9-9-9-9-9-9-9-9-9--|
 A --7--7--7-7-7--7--7--7-7-7--9-9-9-9-9-9-9-9-9-9-9-9-9-9-9-9-9-9-9-9--|
 E --5--5--5-5-5--5--5--5-5-5--7-7-7-7-7-7-7-7-7-7-7-7-7-7-7-7-7-7-7-7--|

p.m. ......................
CHORUS 3:
Guitar 1:
[E5] [A5] [B5] [A5]  
 
 e |-----------------------------------------------------|
 B |-----------------------------------------------------|
 G |--9999--9999-----------------------------------------| Play 2x
 D |--9999--9999---7777--7777---9999--9999---7777--7777--|
 A |--7777--7777---7777--7777---9999--9999---7777--7777--|
 E |---------------5555--5555---7777--7777---5555--5555--|

Guitar 2:
 
 e |-----------------------------------------------------|
 B |-----------------------------------------------------|
 G |--9----9-9-9-\\-13--13-13\\14/11--11-11-11/9-----------| Play 2x
 D |--x----x-x-x-\\--x---x--x\\-x/-x---x--x--x/x-----------| Play around
 A |--7*---7-7-7-\\-11*-11-11\\12/-9*--9--9--9/7*----------| with these
 E |-----------------------------------------------------| octaves.

BRIDGE 2:
 
 e |-----------------------------| e |---------------|
 B |-----------------------------| B |-----------17--|
 G |-----------13------------14--| Play 3x, G |---------------| Then
 D |-----14------------14--------| Then D |-----17--------|
 A |--14----14------12----12-----| A |--15----15-----|
 E |-----------------------------| E |---------------|

[E5] [A5] [B5]  
 
 e |-----------|
 B |-----------|
 G |--9-----4--|
 D |--9--7--4--|
 A |--7--7--2*-|
 E |-----5-----|

Play with volume
witch with the B5.
CHORUS 4:
Repeat CHORUS 3
It sounds like there is clean guitar playing the open chords too.
Add some palm muting in there also.
OUTRO:
Guitar 1 Repeats INTRO
Guitar 2:
 
 e |----<12--------<12------<7-------<12--------<12--------------<12--|
 B |--------<12---------------------------<12---------<12------<12----|
 G |--<12-------<12------<7-------<12---------<12---------------------|
 D |------------------------------------------------------------------|
 A |------------------------------------------------------------------|
 E |------------------------------------------------------------------|

Guitar 1:
ends on(E5)
 
 e |-----------|
 B |-----------|
 G |--------13-|
 D |-----14----|
 A |--14-------|
 E |-----------|

That's it! Send corrections, comments, and death threats to
Gomer188@hotmail.com

Important: The song above is NOT stored on the Chordie server. The original song is hosted at www.xguitar.com. Chordie works as a search engine and provides on-the-fly formatting. Chordie does not index songs against artists'/composers' will. To remove this song please click here.

Text color:
Chord color:
Chord grids: 
Font size:    
Page size: 

A A5 B B5 C#5 D#5 E E5 G#5
Rate #5 of 7 versions

Jango Player

Login - add to songbook

SHARE PAGE  




You need to log in to post comments