Guitar Tabs, Chords and Lyrics
Major upgrade!! After one year development the new version of Chordie is now online! Please give feedback.


A Call for Blood   Hatebreed

 
 -------------

 


 


 Main riff


 

 
 ---------------------------------------------
 -----a--------b---------c---------d----------
 ---------------------------------------------
 ---6567-------653--------6568-------653------
 ---43455-0000-4315-0000--43465-0000-4315-0000
 -------5-0000----5-0000------5-0000----5-0000

 


 .... .... .... ....


 


 Played once with guitar 1 doing all riff and guitar 2 only the


 a and c parts


 both guitarsx 4


 solwer x4 (From b part, and the last time ends in a)


 then:


 


 riff 2 (Guitar 2 only plays the 000)


 


 

 
 a -----0h31-----0h34-------0h31---00000000---- x1
 D --000----5-000-----5-000-----5--00000000----

 


 ... ... ... ........


 


 riff 2 b


 

 
 ---------------------------------------------
 ---------------------------------------------
 ---------------------------------------------
 ------53------56------53---------------------
 ------315-----345-----315-000000-------------x2
 -000----5-000---5-000---5-000000-------------

 


 ... ... ... ......


 


 main riff again as in the start of the song


 riff 2 and 2 b again as in the other part


 and then:


 


 ending riffs


 [3] [a]  


 

 
 ---------------------------------------------
 ---------------------------------------------
 ---------------------------------------------
 --6567--6567--6567--6567---------------------
 0-43450-43450-43450-43450--------------------
 0-----0-----0-----0-----0--------------------

 


 


 [3b]  


 

 
 ---------------------------------------------
 ---------------------------------------------x6
 ---------------------------------------------
 ---5--5----5--563----------------------------
 ---3--3----3--3415---------------------------
 -00-00---00-00---5---------------------------


Important: The song above is NOT stored on the Chordie server. The original song is hosted at www.xguitar.com. Chordie works as a search engine and provides on-the-fly formatting. Chordie does not index songs against artists'/composers' will. To remove this song please click here.

This song is displayed as text-only. Transposing and tuning is only available for chordpro-songs.
Rate #1 of 2 versions

Login - add to songbook

SHARE PAGE  




You need to log in to post comments