Guitar Tabs, Chords and Lyrics
Major upgrade!! After one year development the new version of Chordie is now online! Please give feedback.


Live for This   Hatebreed

 
 |-------------------------------------|
 |-------------------------------------|
 |--7--5-8-------7-------7-------------|
 |--7--5-8-------7-------7-------------| x3
 |--5--3-6-------5-------5-------------|
 |---------0-0-0---0-0-0---0-0-0-------|

 


 . . . . . . . . .


 Riff 2


 

 
 |-------------------------------------|
 |-------------------------------------|
 |--5--------8-------------------------|
 |--5-(x10)--8-(x8)--------------------|
 |--3--------6-------------------------|
 |-------------------------------------|

 


 


 Riff 2 (alternate)


 

 
 |-------------------------------------|
 |-------------------------------------|
 |-----------8-------------------------|
 |-----------8-(x8)--------------------|
 |-----------6-------------------------|
 |-------------------------------------|

 


 ^ (pause guitar)


 


 Riff 3


 

 
 |--------------------------------------|
 |--------------------------------------|
 |--------------------------------------|
 |--0--0-0-7--0-0-6--0-0-3-0-0-3-0-0-3--| x4
 |--0--0-0-7--0-0-6--0-0-3-0-0-3-0-0-3--|
 |--0--0-0-7--0-0-6--0-0-3-0-0-3-0-0-3--|

 


 . . . . . . . .


 


 Riff 4


 

 
 |-------------------------------------|
 |-------------------------------------|
 |--------------------5--------8-------|
 |-0-----0-----0------5-(x10)--8-(x8)--| x2
 |-0-----0-----0------3--------6-------|
 |-0-----0-----0-----------------------|


Important: The song above is NOT stored on the Chordie server. The original song is hosted at www.xguitar.com. Chordie works as a search engine and provides on-the-fly formatting. Chordie does not index songs against artists'/composers' will. To remove this song please click here.

This song is displayed as text-only. Transposing and tuning is only available for chordpro-songs.
Rate #2 of 4 versions

Jango Player

Login - add to songbook

SHARE PAGE  




You need to log in to post comments