Guitar Tabs, Chords and Lyrics
Major upgrade!! After one year development the new version of Chordie is now online! Please give feedback.


This Is Now  Hatebreed

Rise Of Brutality
Drop C:
[C] [G] [C] [F] [A] [D]  
Intro: Fig. 1
 
 d--------------------------------------------------------------
 a--------------------------------------------------------------
 f--------------------------------------------------------------end
 c--------------------------------------------------------------
 g-3---0---3-4---3-----0--1-3---1----0---3-4--3---0-0-0-0-0-0-0-
 c-3-0-0---3-4---3---0-0--1-3---1--0-0---3-4--3---0-0-0-0-0-0-0-

* * * * * * * * * *
 
 d--------------------------------------------------------------
 a--------------------------------------------------------------
 f--------------------------------------------------------------
 c--------------------------------------------------------------
 g-3---0---3-4---3-----0--1-3---1----0---3-4--3---0-0-0---0-0-0-
 c-3-0-0---3-4---3---0-0--1-3---1--0-0---3-4--3---0-0-0---0-0-0-

* * * * * * * * *
Fig. 1 (x4)
Verses 1&2: (x4)
 
 d--------------------------------------------
 a--------------------------------------------
 f--------------------------------------------
 c----------7---------6--------3--------3-3-3-
 g-0--------5---------4--------1--------1-1-1-
 c-0------------------------------------------

Chorus: Fig. 1 (x4)
Interlude:
 
 d-------------------------------------------------------------
 a-------------------------------------------------------------
 f-------------------------------------------------------------
 c-------------------------------------------------------------
 g-0-------0-----------0---------0-------0-----------0-----0---
 c-0---0-0-0---0-0-0-0-0---0-0-0-0---0-0-0---0-0-0-0-0---0-0---

* * * * * * * * * * * * * * * *
 
 d-------------------------------------------------------------
 a-------------------------------------------------------------
 f-------------------------------------------------------------
 c-------------------------------------------------------------
 g-0-------0-----------0---------0-------0-------7-6---3--6--6-
 c-0---0-0-0---0-0-0-0-0---0-0-0-0---0-0-0---0-0-7-6---3--6--6-

* * * * * * * * * * * * *
Guitar Solo: (x2)
 
 d-------------------------------------------------------------
 a-------------------------------------------------------------
 f-7-----------------7-/-8---5---------------------------------
 c-x-----------------x---x---x---------------------------------
 g-5-----------------5-/-6---3---------------------------------
 c-------------------------------------------------------------
 d-------------------------------------------------------------
 a-------------------------------------------------------------
 f-7-----------------7-/-8---4---------------------------------
 c-x-----------------x---x---x---------------------------------
 g-5-----------------5-/-6---2---------------------------------
 c-------------------------------------------------------------

Outro:
 
 d--------------------------------------------------------------
 a--------------------------------------------------------------
 f--------------------------------------------------------------
 c--------------------------------------------------------------
 g-3---0---3-4---3-----0--1-3---1----0---3-4--3---0-0-0---0-0-0-
 c-3-0-0---3-4---3---0-0--1-3---1--0-0---3-4--3---0-0-0---0-0-0-

* * * * * * * * *
that?s all
timmy91199@yahoo.ca

Important: The song above is NOT stored on the Chordie server. The original song is hosted at www.xguitar.com. Chordie works as a search engine and provides on-the-fly formatting. Chordie does not index songs against artists'/composers' will. To remove this song please click here.

Text color:
Chord color:
Chord grids: 
Font size:    
Page size: 

A C D F G
Rate #3 of 3 versions

Jango Player

Login - add to songbook

SHARE PAGE  




You need to log in to post comments