Guitar Tabs, Chords and Lyrics
Major upgrade!! After one year development the new version of Chordie is now online! Please give feedback.


Prepare for War   Hatebreed

 
 E|---------------------------------||
 B|---------------------------------||
 G|---------------------------------||
 D|-3-2---3-2---3-2---3-2---3-2-----||
 A|-3-2---3-2---3-2---3-2---3-2-----||
 E|-1-0---1-0---1-0---1-0---3-0-----||

 


 


 [2)]  

 
 E|---------------------------------||
 B|---------------------------------||
 G|-----------------------------4---||
 D|-2-----4/5-----5/7-----7-----4---||
 A|-2-----4/5-----5/7-----7-----2---||
 E|-0-0-0-2/3-0-0-3/5-0-0-5-0-0-----||

 


 * * * * * * * *


 [3)]  

 
 E|---------------------------------||
 B|---------------------------------||
 G|-----------------------------5---||
 D|-2-----4/5-----5/7-----7-----5---||
 A|-2-----4/5-----5/7-----7-----3---||
 E|-0-0-0-2/3-0-0-3/5-0-0-5-0-0-----||

 


 * * * * * * * *


 [4)]  

 
 E|---------------------------------||
 B|---------------------------------||
 G|---------------------------------||
 D|-2--2------0-0-2---2-------------||
 A|-2--2------0-0-2---2-------------||
 E|-0--0------0-0-0---0-------------||

 


 ^


 [5)]  

 
 E|---------------------------------||
 B|---------------------------------||
 G|---------------------------------||
 D|-2-4-5-4-2-4-5-7-----------------||
 A|-2-4-5-4-2-4-5-7-----------------||
 E|-0-2-3-2-0-2-3-5-----------------||

 


 * * * * * * * *


 [6)]  

 
 E|---------------------------------||
 B|---------------------------------||
 G|---------------------------------||
 D|-2-4-5-4-2-4-5-7-----------------||
 A|-2-4-5-4-2-4-5-7-----------------||
 E|-0-2-3-2-0-2-3-5-----------------||


Important: The song above is NOT stored on the Chordie server. The original song is hosted at www.xguitar.com. Chordie works as a search engine and provides on-the-fly formatting. Chordie does not index songs against artists'/composers' will. To remove this song please click here.

This song is displayed as text-only. Transposing and tuning is only available for chordpro-songs.
Rate #2 of 2 versions

Login - add to songbook

SHARE PAGE  




You need to log in to post comments