Guitar Tabs, Chords and Lyrics
Major upgrade!! After one year development the new version of Chordie is now online! Please give feedback.


Andromeda   Hopesfall

 
 |-0-|---|---|
 |-5-|-8-|10-|<---Just play these three chords throughout
 |-5-|-7-|-9-| the whole song.
 |-3-|-5-|-7-|
 |-3-|-5-|-7-|
 |-3-|-5-|-7-|

 


 


 Intro - Ryan Parrish [0:25]-[4x]


 

 
 |----------------------------------|
 |-10---8-------10---8-------10---8-|
 |----------------------------------|
 |----------------------------------|
 |----------------------------------|
 |----------------------------------|

 


 


 Verse - Ryan Parrish [01:04]


 |-7h8-0h3/5-/-7-|


 

 
 |---------------|
 |---------------|
 |---------------|
 |---------------|
 |---------------|

 


 


 Verse - Overdub [01:29]-[8x]


 

 
 |-12-------------12-------------12------|
 |------13---13--------13---13--------13-|<---Play 8x and then use
 |---------------------------------------| feedback.
 |---------------------------------------|
 |---------------------------------------|
 |---------------------------------------|

 


 


 Outro - Josh Brigham [Rytbm is exact]-[02:18]-[2x]


 

 
 |-0-----0---0-0-----0---0-0-0-0-0-0-----0---0-0-----0---0-0-0-0-0-|
 |-5-----5---5-5-----5---5-5-5-5-5-8-----8---8-8-----8---8-8-8-8-8-|
 |-5-----5---5-5-----5---5-5-5-5-5-7-----7---7-7-----7---7-7-7-7-7-|
 |-3-----3---3-3-----3---3-3-3-3-3-5-----5---5-5-----5---5-5-5-5-5-|
 |-3-----3---3-3-----3---3-3-3-3-3-5-----5---5-5-----5---5-5-5-5-5-|
 |-3-----3---3-3-----3---3-3-3-3-3-5-----5---5-5-----5---5-5-5-5-5-|
 |-0-----0---0-0-----0---0-0-0-0-0--0-----0---0-0-----0---0-0-0-0-0--|
 |-10----10--1010----10--1010101010-10----10--1010----10--1010101010-|
 |-9-----9---9-9-----9---9-9-9-9-9--9-----9---9-9-----9---9-9-9-9-9--|
 |-7-----7---7-7-----7---7-7-7-7-7--7-----7---7-7-----7---7-7-7-7-7--|
 |-7-----7---7-7-----7---7-7-7-7-7--7-----7---7-7-----7---7-7-7-7-7--|
 |-7-----7---7-7-----7---7-7-7-7-7--7-----7---7-7-----7---7-7-7-7-7--|


Important: The song above is NOT stored on the Chordie server. The original song is hosted at www.xguitar.com. Chordie works as a search engine and provides on-the-fly formatting. Chordie does not index songs against artists'/composers' will. To remove this song please click here.

This song is displayed as text-only. Transposing and tuning is only available for chordpro-songs.
Rate #1 of 2 versions

Jango Player

Login - add to songbook

SHARE PAGE  




You need to log in to post comments