Guitar Tabs, Chords and Lyrics
Server problems seems to be fixed. Chordie has been experiencing problems with songs disappearing. These issues now seems to be fixed, but still verifying the fix. If you find anything strange, please email admin@chordie.com.


Dana Walker  Hopesfall

As recorded by Hopesfall
(From the 2002 Album THE SATELLITE YEARS)
Words by Jay Forrest
Music by Hopesfall
Arranged by Jamie Williams
Transcribed by Jamie Williams
Gtr I (D A D G B E) - 'Josh'
Gtr II (D A D G B E) - 'Ryan'
Gtr III (D A D G B E) - 'Josh Clean'
Gtr IV (D A D G B E) - 'Ryan Clean'
Section A
Q=180
N.C.
[3/4] Gtr I[4/4]
W W W W
 
 ||---------|--------|--------|-------||
 ||o--------|--------|--------|------o||
 ||---------|--------|--------|-------||
 ||---------|--------|--------|-------||
 ||o--------|--------|--------|------o||
 ||---------|--------|--------|-------||

Section B
[A5] [Asus2] [Am] [A5] [Asus2] [Am] [Fsus2] 
[3/4] Gtrs I, II[4/4]
E E E E E E E E E E E E E E E E E E E E E E E E E E 4x
 
 ||--------------|---------------|---------------|------------------||
 ||o-------------|---------------|---------------|-----------------o||
 ||--------------|---------------|---------------|------------------||
 ||--7-7---9-9---|-10-10---7-7---|-9-9---10-10---|-5-5---5-5---5----||
 ||o-7-7---7-7---|--7--7---7-7---|-7-7----7--7---|-3-3---3-3---3---o||
 ||--7-7---7-7---|--7--7---7-7---|-7-7----7--7---|-3-3---3-3---3----||

[A5] [Asus2] [Am] [A5] [Asus2] [Am] [Fsus2] 
[3/4] E E E E E E E E E E E E E E E E E E [4/4] E E E E E E E E 4x
 
 ||--------------|---------------|---------------|------------------||
 ||o-------------|---------------|---------------|-----------------o||
 ||--------------|---------------|---------------|------------------||
 ||--7-7---9-9---|-10-10---7-7---|-9-9---10-10---|-5-5---5-5---5----||
 ||o-7-7---7-7---|--7--7---7-7---|-7-7----7--7---|-3-3---3-3---3---o||
 ||--7-7---7-7---|--7--7---7-7---|-7-7----7--7---|-3-3---3-3---3----||

Section C
[F5]Gtr I
Q. E Q. E Q. E Q. E
 
 |-------------------|-------------------|
 |-------------------|-------------------|
 |-------------------|-------------------|
 |-3------3-3------3-|-3------3-3------3-|
 |-3------3-3------3-|-3------3-3------3-|
 |-3------3-3------3-|-3------3-3------3-|

|
| Gtr II
| E E E E E E E E E E E E E E E E
 
 |-------------------|-------------------|
 |----0---0----0---0-|----0---0----0---0-|
 |-4----4---4----4---|-4----4---4----4---|
 |-------------------|-------------------|
 |-------------------|-------------------|
 |-------------------|-------------------|

[G5]Q. E Q. E Q. E Q. E
 
 |-------------------|-------------------|
 |-------------------|-------------------|
 |-------------------|-------------------|
 |-5------5-5------5-|-5------5-5------5-|
 |-5------5-5------5-|-5------5-5------5-|
 |-5------5-5------5-|-5------5-5------5-|

|
| E E E E E E E E E E E E E E E E
 
 |-------------------|-------------------|
 |----0---0----0---0-|----0---0----0---0-|
 |-5----5---5----5---|-5----5---5----5---|
 |-------------------|-------------------|
 |-------------------|-------------------|
 |-------------------|-------------------|

[E5]Q. E Q. E Q. E Q. E
 
 |-------------------|-------------------|
 |-------------------|-------------------|
 |-------------------|-------------------|
 |-2------2-2------2-|-2------2-2------2-|
 |-2------2-2------2-|-2------2-2------2-|
 |-2------2-2------2-|-2------2-2------2-|

|
| E E E E E E E E E E E E E E E E
 
 |-------------------|-------------------|
 |----0---0----0---0-|----0---0----0---0-|
 |-7----7---7----7---|-7----7---7----7---|
 |-------------------|-------------------|
 |-------------------|-------------------|
 |-------------------|-------------------|

[F5]Q. E Q. E Q. E Q. E
 
 |-------------------|-------------------||
 |-------------------|-------------------||
 |-------------------|-------------------||
 |-3------3-3------3-|-3------3-3------3-||
 |-3------3-3------3-|-3------3-3------3-||
 |-3------3-3------3-|-3------3-3------3-||

|
| E E E E E E E E E E E E E E E E
 
 |-------------------|-------------------||
 |----6---6----6---6-|----6---6----6---6-||
 |-5----5---5----5---|-5----5---5----5---||
 |-------------------|-------------------||
 |-------------------|-------------------||
 |-------------------|-------------------||

Section D
[A5]  
 
 PM------------------------------------------------|

[E] [E] [E] [E] [E] [E] [E] [E] [E] [E] [E] [E] [E] [E] [E] [E] [E] [E] [E] [E] [E] [E] [E] [E] [E] [E] [E] [E] [E] [E] [E] [E]  
 
 |-----------------|-----------------|-----------------|-----------------||
 |-----------------|-----------------|-----------------|-----------------||
 |-----------------|-----------------|-----------------|-----------------||
 |-----------------|-----------------|-------7-7-7-7-7-|-7-7-7-7-7-7-7-7-||
 |-7-7-7-7-7-7-7-7-|-7-7-7-7-7-7-7-7-|-7-7-7-7-7-7-7-7-|-7-7-7-7-7-7-7-7-||
 |-7-7-7-7-7-7-7-7-|-7-7-7-7-7-7-7-7-|-7-7-7-7-7-7-7-7-|-7-7-7-7-7-7-7-7-||

|
 
 | PM------------------------------------------------------------------|

| E E E E E E E E E E E E E E E E E E E E E E E E E E E E E E E E
 
 |-----------------|-----------------|-----------------|-----------------||
 |-----------------|-----------------|-----------------|-----------------||
 |-----------------|-----------------|-----------------|-----------------||
 |-----------------|-----------------|-----------------|-----------------||
 |-7-7-7-7-7-7-7-7-|-7-7-7-7-7-7-7-7-|-7-7-7-7-7-7-7-7-|-7-7-7-7-7-7-7-7-||
 |-7-7-7-7-7-7-7-7-|-7-7-7-7-7-7-7-7-|-7-7-7-7-7-7-7-7-|-7-7-7-7-7-7-7-7-||

N.C.
[E] [E] [E] [E] [E] [E] [E] [E] [E] [E] [E] [E] [E] [E] [E] [E]  
 
 ||--------------------------|-------------------------|
 ||o-------------------------|-------------------------|
 ||--21-21-21-21-21-21-21-21-|-21-21-21-21-21-21-21-21-|
 ||--------------------------|-------------------------|
 ||o-20-20-20-20-20-20-20-20-|-20-20-20-20-20-20-20-20-|
 ||--------------------------|-------------------------|

|
| E E E E E E E E E E E E E E E E
 
 ||--------------------------|-------------------------|
 ||o-------------------------|-------------------------|
 ||--21-17-17-17-17-17-17-17-|-17-17-17-17-17-17-17-17-|
 ||--------------------------|-------------------------|
 ||o-19-15-15-15-15-15-15-15-|-15-15-15-15-15-15-15-15-|
 ||--------------------------|-------------------------|

E E E E E E E E E E E E E E E E 4x
 
 |-------------------------|---------------------------||
 |-------------------------|--------------------------o||
 |-21-21-21-21-21-21-21-21-|-21-21-21-21-21-21-21-21---||
 |-------------------------|---------------------------||
 |-20-20-20-20-20-20-20-20-|-20-20-20-20-20-20-20-20--o||
 |-------------------------|---------------------------||

|
| E E E E E E E E E E E E E E E E 4x
 
 |-------------------------|---------------------------||
 |-------------------------|--------------------------o||
 |-17-17-17-17-17-17-17-17-|-17-17-17-17-17-17-17-17---||
 |-------------------------|---------------------------||
 |-15-15-15-15-15-15-15-15-|-15-15-15-15-15-15-15-15--o||
 |-------------------------|---------------------------||

Section E
[A5] [D5] [F5] [A5] [D5] [F5]  
 
 PM------| PM------|

E E E E E E Q +W E E E E E E Q +W
 
 |----------------|------------|----------------|--------|
 |----------------|------------|----------------|--------|
 |----------------|------------|----------------|--------|
 |-------------3--|-(3)--------|-------------3--|-(3)----|
 |-7-7---0-0---3--|-(3)--------|-7-7---0-0---3--|-(3)----|
 |-7-7---0-0---3--|-(3)--------|-7-7---0-0---3--|-(3)----|

|
 
 | PM------| PM------|

| E E E E E E Q +W E E E E E E Q +W
 
 |----------------|------------|----------------|--------|
 |----------------|------------|----------------|--------|
 |----------------|------------|----------------|--------|
 |-------------3--|-(3)--------|-------------3--|-(3)----|
 |-7-7---0-0---3--|-(3)--------|-7-7---0-0---3--|-(3)----|
 |-7-7---0-0---3--|-(3)--------|-7-7---0-0---3--|-(3)----|

A5 D5 F5 N.C.
Q E E E E E E E E E E E E Q
 
 ||---------------------|-10p=0-0-8p0-7p0---|
 ||o--------------------|-------------------|
 ||-----------9---------|-------------------|
 ||------9-10---10-9-10-|-------------------|
 ||o--------------------|-------------------|
 ||---------------------|-------------------|

|
 
 | PM-------|

| E E E E E E Q +E E E E E E E E
 
 ||---------------------|-------------------|
 ||o--------------------|-------------------|
 ||---------------------|-----------4-4-4-4-|
 ||----------------3----|-(3)-5-5-5---------|
 ||o-7-7----0-0----3----|-(3)---------------|
 ||--7-7----0-0----3----|-(3)---------------|

1.,2.
A5 D5 F5 N.C.
Q E E E E E E E E E E E E Q 3x
 
 |--------------------|-10p=0-0-8p0-7p0-----||
 |--------------------|--------------------o||
 |----------9---------|---------------------||
 |-----9-10---10-9-10-|---------------------||
 |--------------------|--------------------o||
 |--------------------|---------------------||

|
 
 | PM-------|

| E E E E E E Q +E E E E E E E E 3x
 
 |--------------------|---------------------||
 |--------------------|--------------------o||
 |--------------------|-----------4-4-4-4---||
 |---------------3----|-(3)-5-5-5-----------||
 |-7-7----0-0----3----|-(3)----------------o||
 |-7-7----0-0----3----|-(3)-----------------||

3.
[A5] [D5] [F5]  
Gtrs I, II[5/4]
 
 PM------------|

E E E E E E E E W
 
 |-----------------|------||
 |-----------------|------||
 |-----------------|------||
 |-----------------|------||
 |-7-7---0-0---3-3-|------||
 |-7-7---0-0---3-3-|------||

Section F
Q=90
[Asus2]  
[4/4] Gtr III
W +W W +W
 
 |-^0--------|-(0)--------|-^0--------|-(0)----|
 |-^0--------|-(0)--------|-^0--------|-(0)----|
 |-^2--------|-(2)--------|-^2--------|-(2)----|
 |-^2--------|-(2)--------|-^2--------|-(2)----|
 |-^0--------|-(0)--------|-^0--------|-(0)----|
 |-----------|------------|-----------|--------|

[Asus2]Gtr III
W +W
 
 ||----^0-------------------|---(0)------------------------|
 ||o---^0-------------------|---(0)------------------------|
 ||----^2-------------------|---(2)------------------------|
 ||----^2-------------------|---(2)------------------------|
 ||o---^0-------------------|---(0)------------------------|
 ||-------------------------|------------------------------|

|
| Gtr IV
| a Q +Q a Q +Q a Q Q S +S +Q.
 
 ||-------------------------|------------------------------|
 ||o------------------------|------------------------------|
 ||-------------------------|------------------------------|
 ||--2s=7--(7)\--2s9--(9)\--|-2s10---12--14-(14)b15r(14)---|
 ||o------------------------|------------------------------|
 ||-------------------------|------------------------------|

W +W
 
 |---^0-------------------|---(0)-------------------------||
 |---^0-------------------|---(0)------------------------o||
 |---^2-------------------|---(2)-------------------------||
 |---^2-------------------|---(2)-------------------------||
 |---^0-------------------|---(0)------------------------o||
 |------------------------|-------------------------------||

|
| a Q +Q a Q +Q a Q Q S +S +Q.
 
 |------------------------|-------------------------------||
 |------------------------|------------------------------o||
 |------------------------|-------------------------------||
 |-2s=7--(7)\--2s9--(9)\--|-2s10---12--14-(14)b15r(14)----||
 |------------------------|------------------------------o||
 |------------------------|-------------------------------||

Section G
[Asus2] S S S S S S S S S S S S S S S S
 
 ||---0---0--0--0--0--0--0--0--0--0--0--0--0--0--0--0-|
 ||o-13--13-13-13-13-13-12-12-12-10-10-10-10-10-10-10-|
 ||---------------------------------------------------|
 ||---------------------------------------------------|
 ||o--------------------------------------------------|
 ||---------------------------------------------------|

|
| E. S S S S E E S S S S S
 
 ||---------------------------------------------------|
 ||o--0---------0--0--0--0--0-----0-----0--0--0--0--0-|
 ||---2---------2--2--2--2--2-----2-----2--2--2--2--2-|
 ||---2---------2--2--2--2--2-----2-----2--2--2--2--2-|
 ||o--0---------0--0--0--0--0-----0-----0--0--0--0--0-|
 ||---------------------------------------------------|

[C] S S S S S S S S S S S S S S S S 4x
 
 |--0---0--0--0--0--0--0--0--0--0--0--0--0--0--0--0---||
 |-13--13-13-13-13-13-12-12-12-10-10-10-10-10-10-10--o||
 |----------------------------------------------------||
 |----------------------------------------------------||
 |---------------------------------------------------o||
 |----------------------------------------------------||

|
| E. S S S S E E S S S S S 4x
 
 |----------------------------------------------------||
 |--1---------1--1--1--1--1-----1-----1--1--1--1--1--o||
 |--0---------0--0--0--0--0-----0-----0--0--0--0--0---||
 |--2---------2--2--2--2--2-----2-----2--2--2--2--2---||
 |--3---------3--3--3--3--3-----3-----3--3--3--3--3--o||
 |----------------------------------------------------||

[Asus2] S S S S S S S S S S S S S S S S
 
 ||---0---0--0--0--0--0--0--0--0--0--0--0-12--0-12--0-|
 ||o-13--13-13-13-13-13-12-12-12-10-10-10-10-10-10-10-|
 ||---------------------------------------------------|
 ||---------------------------------------------------|
 ||o--------------------------------------------------|
 ||---------------------------------------------------|

|
| E. S S S S E E S S S S S
 
 ||---------------------------------------------------|
 ||o--0---------0--0--0--0--0-----0-----0--0--0--0--0-|
 ||---2---------2--2--2--2--2-----2-----2--2--2--2--2-|
 ||---2---------2--2--2--2--2-----2-----2--2--2--2--2-|
 ||o--0---------0--0--0--0--0-----0-----0--0--0--0--0-|
 ||---------------------------------------------------|

[C] S S S S S S S S S S S S S S S S 4x
 
 |--0---0--0--0--0--0--0--0--0--0--0--0-12--0-12--0---||
 |-13--13-13-13-13-13-12-12-12-10-10-10-10-10-10-10--o||
 |----------------------------------------------------||
 |----------------------------------------------------||
 |---------------------------------------------------o||
 |----------------------------------------------------||

|
| E. S S S S E E S S S S S 4x
 
 |----------------------------------------------------||
 |--1---------1--1--1--1--1-----1-----1--1--1--1--1--o||
 |--0---------0--0--0--0--0-----0-----0--0--0--0--0---||
 |--2---------2--2--2--2--2-----2-----2--2--2--2--2---||
 |--3---------3--3--3--3--3-----3-----3--3--3--3--3--o||
 |----------------------------------------------------||

Section H
[Asus2]Gtr I
E. S S S S E E S S S S S
 
 ||---------------------------------------------------|
 ||o--0---------0--0--0--0--0-----0-----0--0--0--0--0-|
 ||---2---------2--2--2--2--2-----2-----2--2--2--2--2-|
 ||---2---------2--2--2--2--2-----2-----2--2--2--2--2-|
 ||o--0---------0--0--0--0--0-----0-----0--0--0--0--0-|
 ||---------------------------------------------------|

|
| Gtr II
| S S S S S S S S S S S S S S S S
 
 ||---0---0--0--0--0--0--0--0--0--0--0--0-12--0-12--0-|
 ||o-13--13-13-13-13-13-12-12-12-10-10-10-10-10-10-10-|
 ||---------------------------------------------------|
 ||---------------------------------------------------|
 ||o--------------------------------------------------|
 ||---------------------------------------------------|

[C] E. S S S S E E S S S S S 4x
 
 |----------------------------------------------------||
 |--1---------1--1--1--1--1-----1-----1--1--1--1--1--o||
 |--0---------0--0--0--0--0-----0-----0--0--0--0--0---||
 |--2---------2--2--2--2--2-----2-----2--2--2--2--2---||
 |--3---------3--3--3--3--3-----3-----3--3--3--3--3--o||
 |----------------------------------------------------||

|
| S S S S S S S S S S S S S S S S 4x
 
 |--0---0--0--0--0--0--0--0--0--0--0--0-12--0-12--0---||
 |-13--13-13-13-13-13-12-12-12-10-10-10-10-10-10-10--o||
 |----------------------------------------------------||
 |----------------------------------------------------||
 |---------------------------------------------------o||
 |----------------------------------------------------||

Section I
Q=180
N.C.
[E] [E] [E] [E] [E] [E] [E] [E] [E] [E] [E] [E] [E] [E] [E] [E]  
 
 ||--------------------|-------------------------|
 ||o-------------------|-------------------------|
 ||--9-9-9-9-9-9-12-12-|-12-12-12-12-12-12-12-12-|
 ||--------------------|-------------------------|
 ||o-7-7-7-7-7-7-10-10-|-10-10-10-10-10-10-10-10-|
 ||--------------------|-------------------------|

|
| E E E E E E E E E E E E E E E E
 
 ||--------------------|-------------------------|
 ||o-------------------|-------------------------|
 ||--5-5-5-5-5-5--7--7-|--7--7--7--7--7--7--7--7-|
 ||--------------------|-------------------------|
 ||o-3-3-3-3-3-3--5--5-|--5--5--5--5--5--5--5--5-|
 ||--------------------|-------------------------|

E E E E E E E E E E E E E E E E 4x
 
 |-------------------------|---------------------------||
 |-------------------------|--------------------------o||
 |--7--7--7--7--7--7--5--5-|--5--5--5--5--5--5--5--5---||
 |-------------------------|---------------------------||
 |--5--5--5--5--5--5--3--3-|--3--3--3--3--3--3--3--3--o||
 |-------------------------|---------------------------||

|
| E E E E E E E E E E E E E E E E 4x
 
 |-------------------------|---------------------------||
 |-------------------------|--------------------------o||
 |-10-10-10-10-10-10-12-12-|-12-12-12-12-12-12-12-12---||
 |-------------------------|---------------------------||
 |--8--8--8--8--8--8-10-10-|-10-10-10-10-10-10-10-10--o||
 |-------------------------|---------------------------||

Section J
D5 N.C. D5 N.C. C/E
S S E E E E a Q E E E E a E H q q q q q q q q
 
 |-------------------------|------------------|-------------|--------------|
 |-------------------------|------------------|-------------|--------------|
 |-----------12-(12)s10----|-----5-(5)s7-7----|-------------|--------------|
 |-------------------------|------------------|-5--5--5--5--|-5--5--5--5---|
 |-0-0-0-0-0-10-(10)s=8--0-|-0-0-3-(3)s5-5----|-3--3--3--3--|-3--3--3--3---|
 |-0-0-0-0-0-------------0-|-0-0--------------|-2--2--2--2--|-2--2--2--2---|

|
| S S E E E E a Q E E E E a E H q q q q q q q q
 
 |-------------------------|------------------|-------------|--------------|
 |-------------------------|------------------|-------------|--------------|
 |-----------12-(12)s10----|-----5-(5)s7-7----|-------------|--------------|
 |-------------------------|------------------|-------------|--------------|
 |-0-0-0-0-0-10-(10)s=8--0-|-0-0-3-(3)s5-5----|-3--3--3--3--|-3--3--3--3---|
 |-0-0-0-0-0-------------0-|-0-0--------------|-2--2--2--2--|-2--2--2--2---|

D5 N.C. D5 N.C. C/E
S S E E E E a Q E E E E a E +H q q q q q q q q
 
 |-------------------------|----------------------|-------------|--------------|
 |-------------------------|----------------------|-------------|--------------|
 |-----------12-(12)s10----|-----5-(5)s=7--(7)----|-------------|--------------|
 |-------------------------|----------------------|-5--5--5--5--|-5--5--5--5---|
 |-0-0-0-0-0-10-(10)s=8--0-|-0-0-3-(3)s=5--(5)----|-3--3--3--3--|-3--3--3--3---|
 |-0-0-0-0-0-------------0-|-0-0------------------|-2--2--2--2--|-2--2--2--2---|

|
| S S E E E E a Q E E E E a E +H q q q q q q q q
 
 |-------------------------|----------------------|-------------|--------------|
 |-------------------------|----------------------|-------------|--------------|
 |------------7--(7)s=5----|-----7-(7)s10-(10)----|-------------|--------------|
 |-------------------------|----------------------|-------------|--------------|
 |-0-0-0-0-0--5--(5)s=3--0-|-0-0-5-(5)s=8--(8)----|-3--3--3--3--|-3--3--3--3---|
 |-0-0-0-0-0-------------0-|-0-0------------------|-2--2--2--2--|-2--2--2--2---|

Q=135
D5 N.C. C5 Csus2
S S E E E E a Q. E. E. E E. E. E E. E. E E. E. E [2/4] W
 
 |-------------------------|-----------------|-----------------|------||
 |-------------------------|-----------------|-----------------|------||
 |-----------12-(12)s10----|-5--5--5-5--5--5-|-5--5--5-5--5--5-|------||
 |-------------------------|-----------------|-----------------|------||
 |-0-0-0-0-0-10-(10)s=8----|-3--3--3-3--3--3-|-3--3--3-3--3--3-|------||
 |-0-0-0-0-0---------------|-----------------|-----------------|------||

|
| S S E E E E a Q. E. E. E E. E. E E. E. E E. E. E W
 
 |-------------------------|-----------------|-----------------|------||
 |-------------------------|-----------------|-----------------|------||
 |------------7--(7)s=5----|-5--5--5-5--5--5-|-7--7--7-7--7--7-|------||
 |-------------------------|-5--5--5-5--5--5-|-5--5--5-5--5--5-|------||
 |-0-0-0-0-0--5--(5)s=3----|-3--3--3-3--3--3-|-3--3--3-3--3--3-|------||
 |-0-0-0-0-0---------------|-----------------|-----------------|------||

Q=180
C/E D5 N.C. D5 N.C.
[4/4] q q q q q q q q S S E E E E a Q E E E E a E +H
 
 |-------------|-------------|-------------------------|----------------------|
 |-------------|-------------|-------------------------|----------------------|
 |-------------|-------------|-----------12-(12)s10----|-----5-(5)s=7--(7)----|
 |-5--5--5--5--|-5--5--5--5--|-------------------------|----------------------|
 |-3--3--3--3--|-3--3--3--3--|-0-0-0-0-0-10-(10)s=8--0-|-0-0-3-(3)s=5--(5)----|
 |-2--2--2--2--|-2--2--2--2--|-0-0-0-0-0-------------0-|-0-0------------------|

|
| q q q q q q q q S S E E E E a Q E E E E a E +H
 
 |-------------|-------------|-------------------------|----------------------|
 |-------------|-------------|-------------------------|----------------------|
 |-------------|-------------|------------7--(7)s=5----|-----7-(7)s10-(10)----|
 |-------------|-------------|-------------------------|----------------------|
 |-3--3--3--3--|-3--3--3--3--|-0-0-0-0-0--5--(5)s=3--0-|-0-0-5-(5)s=8--(8)----|
 |-2--2--2--2--|-2--2--2--2--|-0-0-0-0-0-------------0-|-0-0------------------|

C/E D5 N.C.
q q q q q q q q S S E E E E a Q.
 
 |-------------|-------------|-------------------------|
 |-------------|-------------|-------------------------|
 |-------------|-------------|-----------12-(12)s10----|
 |-5--5--5--5--|-5--5--5--5--|-------------------------|
 |-3--3--3--3--|-3--3--3--3--|-0-0-0-0-0-10-(10)s=8----|
 |-2--2--2--2--|-2--2--2--2--|-0-0-0-0-0---------------|

|
| q q q q q q q q S S E E E E a Q.
 
 |-------------|-------------|-------------------------|
 |-------------|-------------|-------------------------|
 |-------------|-------------|------------7--(7)s=5----|
 |-------------|-------------|-------------------------|
 |-3--3--3--3--|-3--3--3--3--|-0-0-0-0-0--5--(5)s=3----|
 |-2--2--2--2--|-2--2--2--2--|-0-0-0-0-0---------------|

Section K
Q=135 Q=155
[C5] [Csus2] [C/F]Gtr III
E. E. E E. E. E E. E. E E. E. E Q Q Q Q Q Q Q Q
 
 |-----------------|-----------------||-----------------|------------------|
 |-----------------|-----------------||-----------------|------------------|
 |-5--5--5-5--5--5-|-5--5--5-5--5--5-||--9---9---9---9--|--9---9---9---9---|
 |-----------------|-----------------||-10--10--10--10--|-10--10--10--10---|
 |-3--3--3-3--3--3-|-3--3--3-3--3--3-||--8---8---8---8--|--8---8---8---8---|
 |-----------------|-----------------||-----------------|------------------|

|
| E. E. E E. E. E E. E. E E. E. E W W
 
 |-----------------|-----------------||-----------------|------------------|
 |-----------------|-----------------||-----------------|------------------|
 |-5--5--5-5--5--5-|-7--7--7-7--7--7-||-----------------|------------------|
 |-5--5--5-5--5--5-|-5--5--5-5--5--5-||-----------------|------------------|
 |-3--3--3-3--3--3-|-3--3--3-3--3--3-||-----------------|------------------|
 |-----------------|-----------------||-----------------|------------------|

Section L
[C5]Gtr III[Csus2] [C/F]
Q Q Q Q Q Q Q E E Q Q Q Q Q Q Q Q 8x
 
 ||--------------|-----------------|-----------------|---------------------||
 ||o-------------|-------------(0)-|-----------------|--------------------o||
 ||--5--5--5--5--|-7--7--7---7-(0)-|--9---9---9---9--|--9---9---9----9-----||
 ||--5--5--5--5--|-5--5--5---5-----|-10--10--10--10--|-10--10--10---10-----||
 ||o-3--3--3--3--|-3--3--3---3-----|--8---8---8---8--|--8---8---8----8----o||
 ||--------------|-----------------|-----------------|---------------------||

|
| Gtr IV
| Q Q Q Q Q Q E E E E Q Q Q Q Q Q E E E E 8x
 
 ||--------------|-----------------|-----------------|---------------------||
 ||o-------------|-----------------|-----------------|--------------------o||
 ||--5--5--5--5--|-5--5--5-5-5--5--|--5---5---5---9--|--9---9---9-9--9-9---||
 ||--------------|-----------------|-----------------|---------------------||
 ||o-3--3--3--3--|-3--3--3-3-3--3--|--3---3---3---7--|--7---7---7-7--7-7--o||
 ||--------------|-----------------|-----------------|---------------------||

[C/E] W +W +W +W
 
 |------------|-------------|-------------|---------*|
 |------------|-------------|-------------|---------*|
 |-^-9--------|--(9)--------|--(9)--------|--(9)----*|
 |-^10--------|-(10)--------|-(10)--------|-(10)----*|
 |-^-7--------|--(7)--------|--(7)--------|--(7)----*|
 |------------|-------------|-------------|---------*|

|
| W +W +W +W
 
 |------------|-------------|-------------|---------*|
 |------------|-------------|-------------|---------*|
 |---5--------|--(5)--------|--(5)--------|--(5)----*|
 |------------|-------------|-------------|---------*|
 |---3--------|--(3)--------|--(3)--------|--(3)----*|
 |------------|-------------|-------------|---------*|

Duration Legend
 
 ---------------
 W - whole; H - half; Q - quarter; E - 8th; S - 16th; T - 32nd; X - 64th; a - acciaccatura

+ - note tied to previous; . - note dotted; .. - note double dotted
Uncapitalized letters represent notes that are staccato (1/2 duration)
Irregular groupings are notated above the duration line
Duration letters will always appear directly above the note/fret number it represents the
duration for. Duration letters with no fret number below them represent rests. Multi-
bar rests are notated in the form Wxn, where n is the number of bars to rest for. Low
melody durations appear below the staff
Tablature Legend
 
 ----------------

h - hammer-on
p - pull-off
b - bend
pb - pre-bend
r - bend release (if no number after the r, then release immediately)
/\ - slide into or out of (from/to "nowhere")
s - legato slide
S - shift slide
<n> - natural harmonic
(n) - artificial harmonic
n(n) - tapped harmonic
~ - vibrato
tr - trill
T - tap
TP - trem. picking
PM - palm muting
\n/ - tremolo bar dip; n = amount to dip
\n - tremolo bar down
n/ - tremolo bar up
/n\ - tremolo bar inverted dip
= - hold bend; also acts as connecting device for hammers/pulls
<> - volume swell (louder/softer)
x - on rhythm slash represents muted slash
o - on rhythm slash represents single note slash
Misc Legend
 
 -----------

| - bar
|| - double bar
||o - repeat start
o|| - repeat end
*| - double bar (ending)
: - bar (freetime)
$ - Segno
& - Coda
Tempo markers - <E/E./Q/Q./H/H.> = BPM(8/16=s8/s16), where s8 = swing 8ths, s16 = swing 16ths
***************************************************************************************
* Generated using Power Tab Editor by Brad Larsen - http://powertab.guitarnetwork.org *
***************************************************************************************

Important: The song above is NOT stored on the Chordie server. The original song is hosted at www.xguitar.com. Chordie works as a search engine and provides on-the-fly formatting. Chordie does not index songs against artists'/composers' will. To remove this song please click here.

Text color:
Chord color:
Chord grids: 
Font size:    
Page size: 

A5 Am Asus2 C C/E C/F C5 Csus2 D5 E E5 F5 Fsus2 G5
Rate #1 of 2 versions

Jango Player

Login - add to songbook

SHARE PAGE  




You need to log in to post comments