Guitar Tabs, Chords and Lyrics
Major upgrade!! After one year development the new version of Chordie is now online! Please give feedback.


Severed Ties Yield Severed Heads   It Dies Today

 
 PM-| PM-| PM-| PM-| PM-| PM-| PM-| PM-| PM-| PM-|
 ||-----------------------------------|-----------------------------------|
 ||o---------------------------------o|o---------------------------------o|
 ||-----------------------------------|-----------------------------------|
 ||-----------------------------------|-----------------------------------|
 ||o-----7-----5-----8-----7-----5h7-o|o-----7-----5-----8-----7-----5h7-o|
 ||--0-0---0-0---0-0---0-0---0-0------|--8-8---8-8---8-8---8-8---8-8------|

 


 |


 | PM-| PM-| PM-| PM-| PM-|


 

 
 |-----------------------------------||
 |o---------------------------------o||
 |-----------------------------------||
 |------2-----0-----3-----2-----0h2--||
 |o-3-3---3-3---3-3---3-3---3-3-----o||
 |-----------------------------------||

 


 |


 |Gtr II


 

 
 | PM-| PM-| PM-| PM-| PM-| PM-| PM-| PM-| PM-| PM-|
 ||-----------------------------------|-----------------------------------|
 ||o---------------------------------o|o---------------------------------o|
 ||------------------2----------------|------------------2----------------|
 ||------5-----3-----------5-----3h5--|------5-----3-----------5-----3h5--|
 ||o---------------------------------o|o-1-1---1-1---1-1---1-1---1-1-----o|
 ||--0-0---0-0---0-0---0-0---0-0------|-----------------------------------|

 


 |


 | PM-| PM-| PM-| PM-| PM-|


 

 
 |-----------------------------------||
 |o---------------------------------o||
 |------------------2----------------||
 |------5-----3-----------5-----3h5--||
 |o-3-3---3-3---3-3---3-3---3-3-----o||
 |-----------------------------------||

 


 


 Pre-Chorus


 Gtr I


 PM-| PM PM-| PM PM-| PM


 

 
 ||----------------------------------------||
 ||o--------------------------------------o||
 ||----------------------------------------||
 ||---------------------------------2-2-2--||
 ||o-----7---5-----7---5-----7---5--2-2-2-o||
 ||--0-0---0---0-0---0---0-0---0----2-2-2--||

 


 |


 |Gtr II


 | PM-| PM PM-| PM PM-| PM


 

 
 ||----------------------------------------||
 ||o--------------------------------------o||
 ||----------------------------------------||
 ||------5---3-----5---3-----5---3--2-2-2--||
 ||o--------------------------------2-2-2-o||
 ||--0-0---0---0-0---0---0-0---0----2-2-2--||

 


 


 Chorus


 Gtrs I, II


 

 
 ||-------------------------------------------------------------------||
 ||o-----------------------------------------------------------------o||
 ||-------------------------------------------------------------------||
 ||--0-0-0-0-7-7-7-7-8-8-8-8-7-7-7-7-5-5-5-5-5-5-5-5-0-0-0-0-3-3-2-2--||
 ||o-0-0-0-0-7-7-7-7-8-8-8-8-7-7-7-7-3-3-3-3-3-3-3-3-0-0-0-0-3-3-2-2-o||
 ||--0-0-0-0-7-7-7-7-8-8-8-8-7-7-7-7-3-3-3-3-3-3-3-3-0-0-0-0-3-3-2-2--||

 


 


 Verse II


 Gtr I


 

 
 PM-| PM-| PM-| PM-| PM-| PM-| PM-| PM-| PM-| PM-|
 ||-----------------------------------|-----------------------------------|
 ||o---------------------------------o|o---------------------------------o|
 ||-----------------------------------|-----------------------------------|
 ||-----------------------------------|-----------------------------------|
 ||o-----7-----5-----8-----7-----5h7-o|o-----7-----5-----8-----7-----5h7-o|
 ||--0-0---0-0---0-0---0-0---0-0------|--8-8---8-8---8-8---8-8---8-8------|

 


 |


 | PM-| PM-| PM-| PM-| PM-|


 

 
 |-----------------------------------||
 |o---------------------------------o||
 |-----------------------------------||
 |------2-----0-----3-----2-----0h2--||
 |o-3-3---3-3---3-3---3-3---3-3-----o||
 |-----------------------------------||

 


 |


 |Gtr II


 

 
 | PM-| PM-| PM-| PM-| PM-| PM-| PM-| PM-| PM-| PM-|
 ||-----------------------------------|-----------------------------------|
 ||o---------------------------------o|o---------------------------------o|
 ||------------------2----------------|------------------2----------------|
 ||------5-----3-----------5-----3h5--|------5-----3-----------5-----3h5--|
 ||o---------------------------------o|o-1-1---1-1---1-1---1-1---1-1-----o|
 ||--0-0---0-0---0-0---0-0---0-0------|-----------------------------------|

 


 |


 | PM-| PM-| PM-| PM-| PM-|


 

 
 |-----------------------------------||
 |o---------------------------------o||
 |------------------2----------------||
 |------5-----3-----------5-----3h5--||
 |o-3-3---3-3---3-3---3-3---3-3-----o||
 |-----------------------------------||

 


 


 Pre-Chorus


 Gtr I


 PM-| PM PM-| PM PM-| PM


 

 
 ||----------------------------------------||
 ||o--------------------------------------o||
 ||---------------------------------5-5-5--||
 ||---------------------------------5-5-5--||
 ||o-----7---5-----7---5-----7---5--3-3-3-o||
 ||--0-0---0---0-0---0---0-0---0-----------||

 


 |


 |Gtr II


 | PM-| PM PM-| PM PM-| PM


 

 
 ||----------------------------------------||
 ||o--------------------------------------o||
 ||---------------------------------5-5-5--||
 ||------5---3-----5---3-----5---3--5-5-5--||
 ||o--------------------------------3-3-3-o||
 ||--0-0---0---0-0---0---0-0---0-----------||

 


 


 Bridge


 Gtr I


 

 
 ||-------------------------------------------------||
 ||o-----------------------------------------------o||
 ||-----9-10----------------------------------------||
 ||--8--x--x--5-5-5-5----7-----7-----7-----7-----7--||
 ||o-8--7--8--5-5-5-5--5---0h5---0h5---0h5---0h5---o||
 ||--8--------5-5-5-5-------------------------------||

 


 |


 |Gtr II


 

 
 ||--------------------------------------------------||
 ||o------------------------------------------------o||
 ||-----12-14----------------------------------------||
 ||--8---x--x--5-5-5-5----7-----7-----7-----7-----7--||
 ||o-8--10-12--5-5-5-5--5---0h5---0h5---0h5---0h5---o||
 ||--8---------5-5-5-5-------------------------------||

 


 


 Chorus


 Gtrs I, II


 

 
 ||-------------------------------------------------------------------||
 ||o-----------------------------------------------------------------o||
 ||-------------------------------------------------------------------||
 ||--0-0-0-0-7-7-7-7-8-8-8-8-7-7-7-7-5-5-5-5-5-5-5-5-0-0-0-0-3-3-2-2--||
 ||o-0-0-0-0-7-7-7-7-8-8-8-8-7-7-7-7-3-3-3-3-3-3-3-3-0-0-0-0-3-3-2-2-o||
 ||--0-0-0-0-7-7-7-7-8-8-8-8-7-7-7-7-3-3-3-3-3-3-3-3-0-0-0-0-3-3-2-2--||

 


 


 Breakdown


 Gtrs I, II


 

 
 PM--------------------------| PM-----------| 8x
 |----------------------------------||------------------||
 |----------------------------------||o----------------o||
 |----------------------------------||------------------||
 |-[2]------------------------------||------------------||
 |-----0-0--0-0--0-0--0-0--0-0--0-0-||o-0-0--0-0--0--0-o||
 |-----0-0--0-0--0-0--0-0--0-0--0-0-||--0-0--0-0--0--0--||

 


 |


 

 
 | PM------------------------------------------------------|
 |---------------------------------------------------------------------|
 |---------------------------------------------------------------------|
 |---------------------------------------------------------------------|
 |---------------------------------------------------------------------|
 |-12//-12//-0-0--0-0-0--0--0-0----0-0-0-0-0-0-0-0--0-0--0-0-0--0--0-0-|
 |-12//-12//-0-0--0-0-0--0--0-0----0-0-0-0-0-0-0-0--0-0--0-0-0--0--0-0-|

 


 |


 

 
 | PM---------------------------------------------------------------------|
 |--------------------------------------------------------------------------|
 |--------------------------------------------------------------------------|
 |--------------------------------------------------------------------------|
 |--------------------------------------------------------------------------|
 |-0-0--0-0-0--0--0-0--8-8--8-8-8--8--8-8--8-8-8-8-8-8-8-8--5-5--5-5-5--5-5-|
 |-0-0--0-0-0--0--0-0--8-8--8-8-8--8--8-8--8-8-8-8-8-8-8-8--5-5--5-5-5--5-5-|

 


 |


 

 
 |---------|
 |---------|
 |---------|

 


 |-5-5-5-5-|


 |-5-5-5-5-|


 |-5-5-5-5-|


 


 Chorus


 Gtrs I, II 3x


 

 
 ||-------------------------------------------------------------------||
 ||o-----------------------------------------------------------------o||
 ||-------------------------------------------------------------------||
 ||--0-0-0-0-7-7-7-7-8-8-8-8-7-7-7-7-5-5-5-5-5-5-5-5-0-0-0-0-3-3-2-2--||
 ||o-0-0-0-0-7-7-7-7-8-8-8-8-7-7-7-7-3-3-3-3-3-3-3-3-0-0-0-0-3-3-2-2-o||
 ||--0-0-0-0-7-7-7-7-8-8-8-8-7-7-7-7-3-3-3-3-3-3-3-3-0-0-0-0-3-3-2-2--||


Important: The song above is NOT stored on the Chordie server. The original song is hosted at www.xguitar.com. Chordie works as a search engine and provides on-the-fly formatting. Chordie does not index songs against artists'/composers' will. To remove this song please click here.

This song is displayed as text-only. Transposing and tuning is only available for chordpro-songs.
Rate #1 of 2 versions

Login - add to songbook

SHARE PAGE  



You need to log in to post comments