Guitar Tabs, Chords and Lyrics
Major upgrade!! After one year development the new version of Chordie is now online! Please give feedback.


Pain Divine  Morbid Angel

PAIN DIVINE - Morbid Angel - Covenant
Rhythm Guitar Transcribed on Bass
Tuning (Low - High): Eb Ab Db Gb
A Play 4 Times
 
 |------------------------------------------------------------|
 |------------------------------------------------------------|
 |-7------4------5------8-\7-\5-/7------4------5------8-------|
 |-5--5-5-2--2-2-3--3-3-6-\5-\3-/5--5-5-2--2-2-3--3-3-6-------|

pm.. pm.. pm.. pm.. pm.. pm..
[B]  
 
 |--------------------------------------------------|
 |--------------------------------------------------|
 |-3------2------5------2------5--4--4--3--3--2--2--|
 |-1--1-1-0--0-0-3--3-3-0--0-0-3--2--2--1--1--0--0--|

pm.. pm.. pm.. pm..
Play Riff B 2 Times
 
 |-----------------------------------------5~-------|
 |--------------------------------------5--3~-------|
 |-3------2------5------2------5-\4-/5--3--3~-------|
 |-1--1-1-0--0-0-3--3-3-0--0-0-3-\2-/3-----1~-------|

pm.. pm.. pm.. pm..
C (Guitar 1 - Left Speaker) Note: Each Note is played
two times
 
 |-----------------------------------------------------------------|
 |-------------------------------------------------8-8-6-6-----8-8-|
 |-----------------3-3-7-7---------8-8-4-4-----8-8---------6-6-----|
 |-8-8-7-7-8-8-5-5---------8-8-5-5---------6-6---------------------|

pm..............................................................
C (Guitar 2 - Right Speaker)
 
 |-----------------------------------------------------------------|
 |-----------------------------------------------------------------|
 |-----------------3-3-7-7---------4-4-8-8---------9-9-8-8-9-9-6-6-|
 |-8-8-7-7-8-8-5-5---------8-8-5-5---------9-9-6-6-----------------|

pm..............................................................
Repeat C
Repeat B x 2
[D]  
 
 |------------------------------------------------------|
 |------------------------------------------------7-----|
 |-6------9--8--9------7------6------9--8--9------7-----|
 |-4--4-4-7--6--7--7-7-5--5-5-4--4-4-7--6--7--7-7-5-----|

pm.. pm.. pm.. pm.. pm..
Play Riff D 2 Times
 
 |------------------------------------------------------|
 |------------------------------------------------------|
 |-6------9--8--9------7------6------9--8--9------7--6--|
 |-4--4-4-7--6--7--7-7-5--5-5-4--4-4-7--6--7--7-7-5--4--|

pm.. pm.. pm.. pm.. pm..
Repeat B
Repeat C x 2
Repeat A and B
E Rakes... Play 3 Times
 
 |----------------------9--10-/11--------------------------|
 |----------------------7--8--/9---------------------------|
 |-5------10------9--8-x--x--------5------10------9--8--7--|
 |-3--3-3-8---8-8-7--6-------------3--3-3-8---8-8-7--6--5--|

pm.. pm.. pm.. pm..
Rakes...........
 
 |----------------------9--10----10--11---|
 |----------------------7--8-----8---9----|
 |-5------10------9--8-x--x-----x---x-----|
 |-3--3-3-8---8-8-7--6--------------------|

pm.. pm..
F* - This is the Only Riff where I'm not sure (Play 4 Times)
 
 |---------------------------------------------------------------------|
 |---------------------------------------------------------------------|
 |-2------3------4------2------3------5------2------3------4--4--5--6--|
 |-0--0-0-1--1-1-2--2-2-0--0-0-1--1-1-3--3-3-0--0-0-1--1-1-2--2--3--4--|

pm.. pm.. pm.. etc. *This is probably all
wrong!
Repeat D, B x 2 and C
Repeat A
The End.
Erik
 
 ----------------------

erik_heino@hotmail.com

Important: The song above is NOT stored on the Chordie server. The original song is hosted at www.xguitar.com. Chordie works as a search engine and provides on-the-fly formatting. Chordie does not index songs against artists'/composers' will. To remove this song please click here.

Text color:
Chord color:
Chord grids: 
Font size:    
Page size: 

B D
Rate #1 of 3 versions

Jango Player

Login - add to songbook

SHARE PAGE  




You need to log in to post comments