Guitar Tabs, Chords and Lyrics
Major upgrade!! After one year development the new version of Chordie is now online! Please give feedback.


Erotic Literature   My Dying Bride

 
 ---------------------------------------------------------

 


 


 Riff 1


 

 
 Db|---------------------------------||
 Ab|---------------------------------||
 Fb|---------------------------------||
 Cb|---------------------------------||
 Gb|----------6"-5"--------6"-5"-3"--||
 Db|--0"--3"--------1"--4"-----------||

 


 


 Riff 2


 

 
 Db|-----------------------------------------------------||
 Ab|-----------------------------------------------------||
 Fb|-----------------------------------------------------||
 Cb|-----------------------------------------------------||
 Gb|--------------6-6-6-5-5-5-------------6-6-6-5-5-3----||
 Db|--0-0-0-3-3-3-------------1-1-1-4-4-4----------------||

 


 


 Fill


 

 
 Db|----------------||
 Ab|----------------||
 Fb|----------------||
 Cb|-gtr2-7~---8~---||
 Gb|-gtr1-5~---6~---||
 Db|----------------||

 


 


 Riff 3


 

 
 Db|------------------------------------------------||
 Ab|------------------------------------------------||
 Fb|------------------------------------------------||
 Cb|----------5-4-3---------------------------------||
 Gb|--2-2-2-2-5-4-3---------2(tr3)-1(tr2)-3(tr4)----||
 Db|--0-0-0-0-3-2-1----0-0--------------------------||

 


 . . . . . .


 


 Riff 4


 

 
 Db|------------------------------------------------||
 Ab|------------------------------------------------||
 Fb|------------------------------------------------||
 Cb|----------5-4-3---------------------------------||
 Gb|--2-2-2-2-5-4-3---------2(tr3)-3(tr4)-1(tr2)----||
 Db|--0-0-0-0-3-2-1----0-0--------------------------||

 


 . . . . . .


 


 Riff 5


 

 
 Db|----------------||
 Ab|----------------||
 Fb|----------------||
 Cb|----------------||
 Gb|--2-2-----(2)---||
 Db|--0-0-----(0)---||

 


 .


 


 Riff 6


 

 
 Db|--------------------------------------------------||
 Ab|--------------------------------------------------||
 Fb|--------------------------------------------------||
 Cb|--------------------------------------------------||
 Gb|--2-2----7-8-7-5-7-5---5--2-2----7-8-7-5-7-5------||
 Db|--0-0----------------8----0-0----------------7----||

 


 . . . .


 


 Riff 7 (Accompanied w/Riff 6)


 

 
 Db|---------------------------------------------------||
 Ab|---------------------------------------------------||
 Fb|---------------------------------------------------||
 Cb|---------------------------------------------------||
 Gb|--2-2----9-10-9-7-9-7----7--2-2----9-10-9-7-9-7----||
 Db|--0-0-----------------10----0-0-----------------9--||

 


 . . . .


 


 Riff 8


 

 
 Db|-------------------------------------------||
 Ab|-------------------------------------------||
 Fb|-------------------------------------------||
 Cb|--7----6--8--7----6----5---4--6--5----4----||
 Gb|--5----4--6--5----4----3---2--4--3----2----||
 Db|--5----4--6--5----4----3---2--4--3----2----||

 


 . . . .


 


 Riff 9


 

 
 Db|----------------------------------------------------||
 Ab|----------------------------------------------------||
 Fb|--------------([])=-(gtr2)--------------------------||
 Cb|----------------------------------------------------||
 Gb|--2--[5"-4"]--3--[4"-3"]--2--[3"-2"]--3--[2"-1"]----||
 Db|--0-----------1-----------0-----------1-------------||


Important: The song above is NOT stored on the Chordie server. The original song is hosted at www.xguitar.com. Chordie works as a search engine and provides on-the-fly formatting. Chordie does not index songs against artists'/composers' will. To remove this song please click here.

This song is displayed as text-only. Transposing and tuning is only available for chordpro-songs.
Rate #0 of 3 versions

Login - add to songbook

SHARE PAGE  




You need to log in to post comments