Guitar Tabs, Chords and Lyrics
Major upgrade!! After one year development the new version of Chordie is now online! Please give feedback.


A Kiss to Remember   My Dying Bride

 
 ||-------------------------------------||
 ||-------------------------------------||
 ||---------5-5-55-555p3-3-3-33h6-6-6-6-||
 ||-0-0-0-0-----------------------------||

 


 


 Riff 1


 


 Lead GTR play this 4x


 

 
 ||-10--10h11p10-10h11p10-9-10-12-10-9-10-9-7--6-8-11-11-11-11h13p11-||
 ||------------------------------------------------------------------||
 ||------------------------------------------------------------------||
 ||------------------------------------------------------------------||
 ||------------------------------------------------------------------||
 ||------------------------------------------------------------------||

 


 


 Rythm GTR a) play this 1x


 

 
 ||-------------------------------------------------------||
 ||-------------------------------------------------------||
 ||------------------------------------------------8/10\\8-||
 ||-\\0------0----0--------1-0-0h1-----5--5-5/8-8-8--------||
 ||-\\0--0-0-0--0-0--0-0-0-1-0-0h1-6-5-3--3-3/6-6-6--------||
 ||-\\0--0-0-0--0-0--0-0-0-1-0-0h1-------------------------||

 


 . . . . . . . . . . .


 


 Rythm GTR b)play this next 3x


 

 
 ||-------------------------------------------------------||
 ||-------------------------------------------------------||
 ||------------------------------------------------8/10\\8-||
 ||---------0----0--------1-0-0h1-----5--5-5/8-8-8--------||
 ||-0-0-0-0-0--0-0--0-0-0-1-0-0h1-6-5-3--3-3/6-6-6--------||
 ||-0-0-0-0-0--0-0--0-0-0-1-0-0h1-------------------------||

 


 . . . . . . . . . . . . .


 


 Riff 2


 


 Lead GTR play this 4x


 

 
 ||-------------------------------------||
 ||-------------------------------5-6---||
 ||---7-5-7-----2-3-----2-3-5---------2-||
 ||-----------------3-------------------||
 ||-------------------------------------||
 ||-------------------------------------||

 


 | |


 |Rythm GTR play this 4x |


 | |


 

 
 ||-------------------------------------||
 ||-------------------------------------||
 ||-7--------3--------------------------||
 ||-7--------3--------3--------7--------||
 ||-5--------1--------3--------7--------||
 ||-------------------3--------7--------||

 


 


 Violin aranged for guitar - play this 2x


 


 

 
 ||---10-12-13---10-12-13---13-15-13--12--12-13-8-10--|
 ||---------------------------------------------------|
 ||---------------------------------------------------|
 ||---------------------------------------------------|
 ||---------------------------------------------------|
 ||---------------------------------------------------|
 |--10-8----------------------------------------------||
 |-------10-11-10-11-8-10-11-10-8-10------------------||
 |-----------------------------------10-9--9-10---9-7-||
 |----------------------------------------------7-----||
 |----------------------------------------------------||
 |----------------------------------------------------||

 


 


 Repeat Riff 1 - 4x


 


 Riff 3


 


 Both GTRs play a)1x then b)8x


 [a)] [b)]  

 
 ||--------------|----------------------------||
 ||--------------|----------------------------||
 ||--------------|----------------------------||
 ||-0--------0---|-8\\3/7------\\3/6---\\1--3-0--||
 ||-0--------0---|-8\\3/7------\\3/6---\\1--3-0--||
 ||-0--------0---|-8\\3/7------\\3/6---\\1--3-0--||

 


 


 Violin aranged for guitar


 hb


 

 
 ||-------|-/10~--13-12-15-8~--5/6\\5h6p5~--17-16--18-18-17~-||
 ||-6-5-6-|-------------------------------------------------||
 ||-------|-------------------------------------------------||
 ||-------|-------------------------------------------------||
 ||-------|-------------------------------------------------||
 ||-------|-------------------------------------------------||

 


 


 Riff 4


 


 Lead GTR play this 4x


 


 

 
 ||------------------------------------------||
 ||------------------------------------------||
 ||-7--5--7------------------10---12-12-10-9-||
 ||---------7---10-8-7---10------------------||
 ||------------------------------------------||
 ||------------------------------------------||

 


 | |


 |Rythm GTR play this 5x |


 | |


 

 
 ||------------------------------------------||
 ||------------------------------------------||
 ||------------------------------------------||
 ||------------------------------------------||
 ||-5---8---7-------------3---8---10-10-8-7--||
 ||--------------7---8-----------------------||

 


 


 Fill 1 - play this 1x after Riff 4


 


 

 
 ||------------||
 ||------------||
 ||-7--5--7----||
 ||---------7--||
 ||------------||
 ||------------||

 


 


 Riff 5


 


 Piano aranged for guitar play this during Riff 4 - 4x,


 then play 2x without GTRs.


 


 Lead GTR


 


 

 
 ||-----------------------------------||
 ||-----------------------------------||
 ||-----------------------------------||
 ||-----7-5---------------------------||
 ||---5-----8-7-8------------8---10-7-||
 ||---------------7-8-7-10-7---7------||

 


 | |


 |Rythm GTR |


 | |


 

 
 ||-----------------------------------||
 ||-----------------------------------||
 ||-----------------------------------||
 ||-----------------------------------||
 ||-5-------------5-8----8---8---10---||
 ||-7-------------7-8---10--10---10---||

 


 


 Repeat Riff 1 - 4x


 


 Repeat Riff 2 - 4x


 


 Repeat Riff 3 - 2x


 


 Outro: Lead GTR play this 1x


 


 

 
 ||-----------------------------------||
 ||-----------------------------------||
 ||-----------------------------------||
 ||-----------------------------------||
 ||-5---8---7-----------3--/8---7---5-||
 ||-------------7---8-----------------||


Important: The song above is NOT stored on the Chordie server. The original song is hosted at www.xguitar.com. Chordie works as a search engine and provides on-the-fly formatting. Chordie does not index songs against artists'/composers' will. To remove this song please click here.

This song is displayed as text-only. Transposing and tuning is only available for chordpro-songs.
Rate #1 of 1 versions

Login - add to songbook

SHARE PAGE  




You need to log in to post comments