Guitar Tabs, Chords and Lyrics
Major upgrade!! After one year development the new version of Chordie is now online! Please give feedback.


It Will Come   My Dying Bride

 
 Bass------------------->| Guitar 1&2--->|
 D#|-------------------------------------------|
 A#|-------------------------------------------|
 F#|---------------------------7-----5---------|
 C#|------------------------------8-----7--5---|
 G#|-------------------------------------------|
 C#|--0-0-0-0-0-0-1-1-0-0-0-0------------------|
 Riff A-------------------------------------->|
 Pm----------------------| * 7x
 D#[--------------------------------------------]
 A#[--------------------------------------------]
 F#[---------------------------7-----5----------]
 C#[------------------------------8-----7--5----]
 G#[--0-0-0-0-0-0-1-1-0-0-0-0-------------------]
 C#[--0-0-0-0-0-0-1-1-0-0-0-0-------------------]

 


 


 *Note: 2nd Guitar Plays A.H.


 


 VERSE 1


 


 (Guitar 1) Rhy Fig. 1


 

 
 D#|--------------------------------------|--------------------------------------|
 A#|--------------------------------------|--------------------------------------|
 F#|----------------------7-----5---------|----------------------7-----5---------|
 C#|--(5)----5--7--8~~-------8-----7--5---|--(5)----5--7------------8-----7--5---|
 G#|--------------------------------------|---------------8~~--------------------|
 C#|--------------------------------------|--------------------------------------|

 


 


 End Rhy Fig. 1


 

 
 D#|--------------------------------------------|--------------------------------------|
 A#|--------------------------------------------|--------------------------------------|
 F#|----------------------------7-----5---------|----------------------7-----5---------|
 C#|--(5)----5--7--(7)b8r7b8~~-----8-----7--5---|--(5)--------------------8-----7--5---|
 G#|--------------------------------------------|--------8-6--5------------------------|
 C#|--------------------------------------------|--------------------------------------|

 


 


 (Guitar 2) Play w/ Rhy Fig. 1 Pm---|


 

 
 D#[----------------|----------------|-----------------|----------------]
 A#[----------------|----------------|-----------------|----------------]
 F#[----------------|----------------|-----------------|----------------]
 C#[--5----5--7--8--|--5----5--7--3--|--5----5--7--7~--|--5----------0--]
 G#[--5----5--7--8--|--5----5--7--3--|--5----5--7--7~--|--5----3--1--0--]
 C#[--5----5--7--8--|--5----5--7--3--|--5----5--7--7~--|--5----3--1--0--]

 


 


 The sun will die


 On us tonight


 The days are gone


 For everyone


 


 (Keyboard arr. for guitar) w/ Riff A (4x) 2x


 

 
 D#[---------------------|---------------------]
 A#[---------------------|---------------------]
 F#[-----7-8------11-12--|-----8-7------11-12--]
 C#[-----7-8------11-12--|-----8-7------11-12--]
 G#[-----5-6-------9-10--|-----6-5-------9-10--]
 C#[---------------------|---------------------]

 


 


 VERSE 2


 


 --Rhy Fig 1 (1x) w/Riff A (4x)--


 


 The holy cry


 Forever night


 What have we done?


 Who killed the sun?


 


 (Keyboard arr. for guitar) w/ Riff A (4x) 2x


 

 
 Fill 1--------->| Fill 2----------->|
 D#[---------------------|---------------------]
 A#[---------------------|---------------------]
 F#[-----7-8--11~~-------|-----7-8------11-12--]
 C#[-----7-8--11~~-------|-----7-8------11-12--]
 G#[-----5-6---9~~-------|-----5-6-------9-10--]
 C#[---------------------|---------------------]

 


 


 CHORUS


 


 

 
 Riff B----------------------------------------|

 


 (Guitar 1&2) 8x


 

 
 D#[--------------------------------------------]
 A#[--------------------------------------------]
 F#[--------------------------------------------]
 C#[---7-7-7-7-7-----13---12-------10-----8-----]
 G#[---7-7-7-7-7-----13---12-------10-----8-----]
 C#[---7-7-7-7-7-----13---12-------10-----8-----]

 


 


 (Violin arr. for guitar) Play w/ Riff B


 

 
 D#[--------------------------------------------]
 A#[--------------------------------------------]
 F#[---14--12--15---14----I havent figured this part out yet...
 C#[--------------------------------------------]
 G#[--------------------------------------------]
 C#[--------------------------------------------]

 


 


 We will be


 On our knees


 The time has come


 Thy will be done


 Holy men pray


 Return the day


 For our souls


 


 (Keyboard arr. for guitar) w/ Riff A (1x)


 

 
 D#|---------------------|
 A#|---------------------|
 F#|-----7-8------11-12--|
 C#|-----7-8------11-12--|
 G#|-----5-6-------9-10--|
 C#|---------------------|

 


 


 VERSE 3


 


 (Guitar 1)


 

 
 D#|--------------------------------------|--------------------------------------|
 A#|--------------------------------------|--------------------------------------|
 F#|----------------------7-----5---------|----------------------7-----5---------|
 C#|--(5)----5--7--8~~-------8-----7--5---|--(5)----5--7------------8-----7--5---|
 G#|--------------------------------------|---------------8~~--------------------|
 C#|--------------------------------------|--------------------------------------|
 D#|--------------------------------------------|--------------------------------------|
 A#|--------------------------------------------|--------------------------------------|
 F#|----------------------------7-----5---------|----------------------7-----5---------|
 C#|--(5)----5--7--(7)b8r7b8~~-----8-----7--5---|--(5)--------------------8-----7--5---|
 G#|--------------------------------------------|--------8-6--5------------------------|
 C#|--------------------------------------------|--------------------------------------|

 


 


 (Guitar 2) Play w/ Rhy Fig. 1 Pm---|


 

 
 D#[----------------|----------------|-----------------|----------------]
 A#[----------------|----------------|-----------------|----------------]
 F#[----------------|----------------|-----------------|----------------]
 C#[--5----5--7--8--|--5----5--7--3--|--5----5--7--7~--|--5----------0--]
 G#[--5----5--7--8--|--5----5--7--3--|--5----5--7--7~--|--5----3--1--0--]
 C#[--5----5--7--8--|--5----5--7--3--|--5----5--7--7~--|--5----3--1--0--]

 


 


 How can we fight,


 This endless night?


 Oh, Lord Jesus,


 Will you save us?


 


 (Keyboard arr. for guitar) w/ Riff A (1x)


 

 
 D#|---------------------|
 A#|---------------------|
 F#|-----7-8-------8-7---|
 C#|-----7-8-------8-7---|
 G#|-----5-6-------6-5---|
 C#|---------------------|

 


 


 (Guitar 1&2) 4x


 

 
 D#[----------------------|---------------------]
 A#[----------------------|---------------------]
 F#[----------------------|---------------------]
 C#[--------7-------------|-----------------7\\--]
 G#[---5---------8--7--5--|--5--------8--7--7\\--]
 C#[----------------------|-----------------7\\--]

 


 


 (Guitar 1) w/ Riff A (2x) & Fill 1 (1st time) + Fill 2 (2nd time)


 

 
 Pm----------------------| 2x
 D#[--------------------------------------------|-----------------------]
 A#[--------------------------------------------|-----------------------]
 F#[---------------------------7-----5----------|-----------------------]
 C#[------------------------------8-----7--5----|--(5)------------------]
 G#[--0-0-0-0-0-0-1-1-0-0-0-0-------------------|-----------------------]
 C#[--0-0-0-0-0-0-1-1-0-0-0-0-------------------|-----------------------]

 


 


 (Keyboard arr. for guitar) w/ Riff A (4x) 2x (Guitar 1&2)


 

 
 D#[---------------------|---------------------]-------||
 A#[---------------------|---------------------]-------||
 F#[-----7-8--11~~-------|-----7-8------11-12--]-------||
 C#[-----7-8--11~~-------|-----7-8------11-12--]--0----||
 G#[-----5-6---9~~-------|-----5-6-------9-10--]--0----||
 C#[---------------------|---------------------]--0----||


Important: The song above is NOT stored on the Chordie server. The original song is hosted at www.xguitar.com. Chordie works as a search engine and provides on-the-fly formatting. Chordie does not index songs against artists'/composers' will. To remove this song please click here.

This song is displayed as text-only. Transposing and tuning is only available for chordpro-songs.
Rate #3 of 4 versions

Jango Player

Login - add to songbook

SHARE PAGE  




You need to log in to post comments