Guitar Tabs, Chords and Lyrics
Major upgrade!! After one year development the new version of Chordie is now online! Please give feedback.


The Wreckage of My Flesh  My Dying Bride

M Y D Y I N G B R I D E - T H E W R E C K A G E O F M Y F L E S H
SONGS OF DARKNESS, WORDS OF LIGHT
(c) Peaceville Records - 2004
Tune Down 1 & 1/2 Steps
[C#] [F#] [B] [E] [G#] [C#] 
Tempo = 115 BPM
Time Signature = 4/4
 
 -----------------------------

Transcribed by
PADDY MCMULLAN
stinkypoohpants@yahoo.co.uk
Version 1.0
 
 -----------------------

Tablature Symbols Used:
p - Pull-Off
h - Hammer-On
\ - Slide Down to/Down From
/ - Slide Up To/Up From
( / ) - Legato Slide
( ) - Ghost Note/Tied Note/Implied Note
5/4 - Time signature of 5 beats per bar (Indicated in bar line)
4/4 - Time signature of 4 beats per bar (Indicated in bar line)
================================================================================
Intro: Guitars 1 and 2 with heavy distortion (Play once)
================================================================================
 
 ||--------------------|---------------------||
 ||--------------------|---------------------||
 ||--------------------|---------------------||
 ||--2----2------------|--(2)----------------||
 ||--2----2------------|--(2)----------------||
 ||--0----0------------|--(0)----------------||

================================================================================
Riff 1: Guitars 1 and 2 (Play twice)
================================================================================
 
 ||-------------------|------------------|------------------|------------------|
 ||-------------------|------------------|------------------|------------------|
 ||-------------------|------------------|------------------|------------------|
 ||-------------------|------------------|------------------|------------------|
 ||--7----------------|--(7)-------------|--(7)-------------|--(7)-------------|
 ||-------------------|------------------|------------------|------------------|
 |-------------------|------------------|------------------|------------------|
 |-------------------|------------------|------------------|------------------|
 |-------------------|------------------|------------------|------------------|
 |-------------------|------------------|------------------|------------------|
 |--7----------------|--(7)-------------|--(7)-------------|--(7)-------------|
 |-------------------|------------------|------------------|------------------|
 |-------------------|---------------------|------------------|---------------| |
 |-------------------|---------------------|------------------|---------------| |
 |-------------------|---------------------|------------------|---------------|*|
 |-------------------|---------------------|------------------|---------------|*|
 |-------------------|---------------------|------------------|---------------| |
 |--8----------------|--5--------7----0----|--0---------------|--(0)----------| |

================================================================================
Riff 2a: Guitar 1 (Play 8 times)
================================================================================
 
 ||-------------------|---------------------|-----------------|---------------| |
 ||-------------------|---------------------|-----------------|---------------| |
 ||-------------------|---------------------|-----------------|---------------|*|
 ||-------------------|---------------------|-----------------|---------------|*|
 ||-------------------|---------------------|-----------------|---------------| |
 ||--8----------------|--5--------7----0----|--0--------------|--(0)----------| |

================================================================================
Riff 2b: Guitar 2 (Play twice) Note that the last 4 bars are the same as Riff 2a
================================================================================
 
 ||-----------------|---------------------|-------------------|-----------------|
 ||-----------------|---------------------|-------------------|-----------------|
 ||-----------------|---------------------|-------------------|-----------------|
 ||-----------------|---------------------|-------------------|-----------------|
 ||--7--------------|-----------5---------|-------------------|-----------------|
 ||-----------------|--8-------------3----|--3----------------|--(3)------------|
 |-----------------|---------------------|-------------------|------------------|
 |-----------------|---------------------|-------------------|------------------|
 |-----------------|---------------------|-------------------|------------------|
 |-----------------|---------------------|-------------------|------------------|
 |--7--------------|-----------5---------|-------------------|------------------|
 |-----------------|--8-------------3----|--3----------------|--(3)-------------|
 |-----------------|---------------------|-------------------|------------------|
 |-----------------|---------------------|-------------------|------------------|
 |-----------------|---------------------|-------------------|------------------|
 |-----------------|---------------------|-------------------|------------------|
 |--7--------------|-----------5---------|-------------------|------------------|
 |-----------------|--8-------------3----|--3----------------|--(3)-------------|
 |-------------------|---------------------|------------------|---------------| |
 |-------------------|---------------------|------------------|---------------| |
 |-------------------|---------------------|------------------|---------------|*|
 |-------------------|---------------------|------------------|---------------|*|
 |-------------------|---------------------|------------------|---------------| |
 |--8----------------|--5--------7----0----|--0---------------|--(0)----------| |

================================================================================
Riff 3a: Guitar 1 (Play 6 times) After 1st time replace Bar 1 with Supplement
================================================================================
// Bar 1 \\
 
 ||--------------------|---------------------------|----------------------|
 ||--------------------|---------------------------|----------------------|
 ||--------------------|---------------------------|----------------------|
 ||--------------------|---------------------------|----------------------|
 ||-/7--------7--------|--(7)----7---(7/10)--10----|-(10\-9)-9------------|
 ||--------------------|---------------------------|----------------------|
 |----------------------------|-----------------------|-------------------------|
 |----------------------------|-----------------------|-------------------------|
 |----------------------------|-----------------------|-------------------------|
 |----------------------------|-----------------------|-------------------------|
 |--(9)----(9/10)-10----10----|--10\---3--------------|--(3)---3/---10----10----|
 |----------------------------|-----------------------|-------------------------|
 |-----------------------|--------------------------------| |
 |-----------------------|--------------------------------| |
 |-----------------------|--------------------------------|*|
 |-----------------------|--------------------------------|*|
 |--10--12p10-9----------|--(9)----9h-10--(10/12)--10p-9--| |
 |-----------------------|--------------------------------| |

==============
| Supplement |
==============
 
 |----------------------------|
 |----------------------------|
 |----------------------------|
 |----------------------------|
 |--10p-9--7------------------|
 |----------------------------|

================================================================================
Riff 3b: Guitar 2 (Play 6 times) After 1st time replace Bar 1 with Supplement
================================================================================
// Bar 1 \\
 
 ||--------------------|---------------------|---------------------|
 ||--------------------|---------------------|---------------------|
 ||--------------------|---------------------|---------------------|
 ||--------------------|---------------------|---------------------|
 ||--------------------|----------------5----|--(5\2)--2-----------|
 ||--0--------0--------|------0---/3---------|---------------------|
 |-------------------------|---------------------|---------------------|
 |-------------------------|---------------------|---------------------|
 |-------------------------|---------------------|---------------------|
 |-------------------------|---------------------|---------------------|
 |--(2)----(2/3)-3----3----|-(3/7)--7------------|--(7)---(7/-3)---3---|
 |-------------------------|---------------------|---------------------|
 |---------------------|------------------------| |
 |---------------------|------------------------| |
 |---------------------|------------------------|*|
 |---------------------|------------------------|*|
 |--3p-0--0------------|--(0)----0----2----2----| |
 |---------------------|------------------------| |

==============
| Supplement |
==============
 
 |----------------------|
 |----------------------|
 |----------------------|
 |----------------------|
 |--2-------------------|
 |-----0--0----0--------|

================================================================================
Riff 4a: Guitar 1 (Play 4 times with lead Riff 1)
================================================================================
*On the fourth repeat allow the last note of the riff to ring out*
 
 ||----------------------|----------------------|-----------------------|
 ||----------------------|----------------------|-----------------------|
 ||----------------------|----------------------|-----------------------|
 ||----------------------|----------------------|-----------------------|
 ||----------------------|----------------------|-----------------------|
 ||--0----3----3----3----|--0----0----2----2----|--2h-3--2--------2h-3--|

// Last note \\
 
 | |----------------------------| |--------------------------|----------------| |
 | |----------------------------| |--------------------------|----------------| |
 |5|----------------------------|4|--------------------------|----------------|*|
 |/|----------------------------|/|--------------------------|----------------|*|
 |4|-----------------------2----|4|--------------------------|----------------| |
 | |--2----2----2h-3--2---------| |--0----0----0----0--------|--(0)-----------| |

================================================================================
Riff 4b: Guitar 2 (Play 4 times with lead Riff 1)
================================================================================
*On the fourth repeat allow the last note of the riff to ring out*
 
 ||----------------------|----------------------|-----------------------|
 ||----------------------|----------------------|-----------------------|
 ||----------------------|----------------------|-----------------------|
 ||----------------------|----------------------|-----------------------|
 ||-------2----2----2----|----------------------|-----------------------|
 ||--0-------------------|--0----0----5----5----|--5h-7--5--------5h-7--|

// Last note \\
 
 | |----------------------------| |--------------------------|----------------| |
 | |----------------------------| |--------------------------|----------------| |
 |5|----------------------------|4|--------------------------|----------------|*|
 |/|----------------------------|/|--------------------------|----------------|*|
 |4|----------------------------|4|--------------------------|----------------| |
 | |--5----5----5h-7--5----7----| |--0----0----0----0--------|--(0)-----------| |

================================================================================
Lead Riff 1: Guitar 3 (Play once, enter on first repeat of Riffs 4a/4b)
================================================================================
 
 ||-------------------|------------------------|---------------------|
 ||-------------------|------------------------|---------------------|
 ||--9----------------|--(9)----(12/-7)--------|--(7)----------------|
 ||-------------------|------------------------|---------------------|
 ||-------------------|------------------------|---------------------|
 ||-------------------|------------------------|---------------------|
 |-----------------------------|-------------------|---------------------|
 |-----------------------------|-------------------|---------------------|
 |--(7)--9--9-----------(12/---|--9)---------------|--(9)----------------|
 |-----------------------------|-------------------|---------------------|
 |-----------------------------|-------------------|---------------------|
 |-----------------------------|-------------------|---------------------|
 |---------------------|------------------------|------------------------|
 |---------------------|------------------------|------------------------|
 |--/16----------------|--(16)--------14--------|--(14)------------16----|
 |---------------------|------------------------|------------------------|
 |---------------------|------------------------|------------------------|
 |---------------------|------------------------|------------------------|
 |--------------------------|--------------------|----------------------|
 |--------------------------|--------------------|----------------------|
 |--17----------------14----|--16----------------|--(16)----------------|
 |--------------------------|--------------------|----------------------|
 |--------------------------|--------------------|----------------------|
 |--------------------------|--------------------|----------------------|
 |------------------------|------------------------|------------------------|
 |------------------------|------------------------|------------------------|
 |--/21----/21------------|--(21)--------19--------|--(19)-----------\14----|
 |------------------------|------------------------|------------------------|
 |------------------------|------------------------|------------------------|
 |------------------------|------------------------|------------------------|
 |--------------------------|----------------------|----------------------|
 |--------------------------|----------------------|----------------------|
 |--16----------------17----|--14----16------------|--(16)----------------|
 |--------------------------|----------------------|----------------------|
 |--------------------------|----------------------|----------------------|
 |--------------------------|----------------------|----------------------|
 |----------------------||
 |----------------------||
 |----------------------||
 |----------------------||
 |--(16)----------------||
 |----------------------||

Allow notes to fade out.
================================================================================
All guitars fade out for keyboard solo
================================================================================
================================================================================
Riff 5: Guitars 1 and 2 (Play 4 times)
================================================================================
*On the last repeat replace the last bar with the supplement*
 
 ||--------------------|------------------------|--------------------|
 ||--------------------|------------------------|--------------------|
 ||--------------------|------------------------|--------------------|
 ||--2--------2--------|--(2)----2/---5----5----|--4--------4--------|
 ||--2--------2--------|--(2)----2/---5----5----|--4--------4--------|
 ||--0--------0--------|--(0)----0/---3----3----|--2--------2--------|
 |------------------------|--------------------|------------------------|
 |------------------------|--------------------|------------------------|
 |------------------------|--------------------|------------------------|
 |--(4)----4----5----5----|--5--------5--------|--(5)----5----5----5----|
 |--(4)----4----5----5----|--3--------3--------|--(3)----3----5----5----|
 |--(2)----2----3----3----|--3--------3--------|--(3)----3----3----3----|

// Last Bar \\
 
 |--------------------|------------------------| |
 |--------------------|------------------------| |
 |--------------------|------------------------|*|
 |--4--------4--------|--(4)----4/---5----5----|*|
 |--4--------4--------|--(4)----4/---5----5----| |
 |--2--------2--------|--(2)----2/---3----3----| |

==============
| Supplement |
==============
 
 |------------------------||
 |------------------------||
 |------------------------||
 |--(4)----4/---5--5------||
 |--(4)----4/---5--5------||
 |--(2)----2/---3--3------||

The variation here is very slight: you must play the last two chords
as 8th notes instead of quarter notes, resting for a full quarter to end
the bar.
================================================================================
Guitars 1 and 2 play Riffs 4a/4b 4 times
================================================================================
================================================================================
Lead Riff 2: Guitar 3 (Play once, enter on first repeat of Riffs 4a/4b)
================================================================================
 
 ||---------------------|--------------------|---------------------|
 ||---------------------|--------------------|---------------------|
 ||---------------------|--------------------|---------------------|
 ||--(9/10)-------------|--9--------7--------|--(7)----------------|
 ||---------------------|--------------------|---------------------|
 ||---------------------|--------------------|---------------------|
 | |---------------------------| |---------------------|----------------------|
 | |---------------------------| |---------------------|----------------------|
 |5|---------------------------|4|---------------------|----------------------|
 |/|--(9/10)----------9--------|/|--/14----------------|--(14)----------------|
 |4|---------------------------|4|---------------------|----------------------|
 | |---------------------------| |---------------------|----------------------|
 |------------------------|------------------------|----------------------|
 |------------------------|------------------------|----------------------|
 |------------------------|------------------------|----------------------|
 |--(16/17)---------16----|--(16)--------14--------|--(14)----------------|
 |------------------------|------------------------|----------------------|
 |------------------------|------------------------|----------------------|
 | |----------------------------| |----------------------|------------------|
 | |----------------------------| |----------------------|------------------|
 |5|----------------------------|4|----------------------|------------------|
 |/|--(16/17)---------16--------|/|--(16)----------14----|--(14)------------|
 |4|----------------------------|4|----------------------|------------------|
 | |----------------------------| |----------------------|------------------|
 |----------------------|-------------------|----------------------|
 |----------------------|-------------------|----------------------|
 |----------------------|-------------------|----------------------|
 |--(9/10)----------9---|--(9)------7-------|--(7)---------(9/10)--|
 |----------------------|-------------------|----------------------|
 |----------------------|-------------------|----------------------|
 | |-----------------------------| |------------------|------------------||
 | |-----------------------------| |------------------|------------------||
 |5|-----------------------------|4|------------------|------------------||
 |/|--(10)--------9--------14----|/|--(14)------------|--(14)------------||
 |4|-----------------------------|4|------------------|------------------||
 | |-----------------------------| |------------------|------------------||

================================================================================
Guitars 1 and 2 play Riff 1 twice, allowing the final notes to ring out
================================================================================
================================================================================
[End]================================================================================
Tab summary: Intro X 1
Riff 1 X 1
Riff 2a X 8 + Riff 2b X 2
Riff 3a + 3b X 6
Riff 4a + 4b X 4
Lead Riff 1 X 1
Riff 5 X 4
Riff 4a + 4b X 4
Lead Riff 2 X 1
Riff 1 X 2
END

Important: The song above is NOT stored on the Chordie server. The original song is hosted at www.xguitar.com. Chordie works as a search engine and provides on-the-fly formatting. Chordie does not index songs against artists'/composers' will. To remove this song please click here.

Text color:
Chord color:
Chord grids: 
Font size:    
Page size: 

B C# E F# G#
Rate #3 of 3 versions

Login - add to songbook

SHARE PAGE  




You need to log in to post comments