Guitar Tabs, Chords and Lyrics
Major upgrade!! After one year development the new version of Chordie is now online! Please give feedback.


Angel's Wings  Social Distortion

Social Distortion - Angels Wings
tabbed by Mike - fretless1@earthlink.net
Tune down half a step and capo 2
(tab relative to capo)
INTRO
[G] [G] [G]  
 
 E||--3----3----------------|--3----3----------------|--3----3----------------|
 B||--3----3----1--3--1--0--|--3----3----1--3--1--0--|--3----3----1--3--1--0--|
 G||--0----0----------------|--0----0----------------|--0----0----------------|
 D||--0----0----------------|--0----0----------------|--0----0----------------|
 A||--x----x----------------|--x----x----------------|--x----x----------------|
 E||--3----3----------------|--3----3----------------|--3----3----------------|

[E] [D]  
 
 --0----0----2----2----||
 --0----0----3----3----||
 --1----1----2----2----||
 --2----2----0----0----||
 --2----2----0----0----||
 --0----0----x----x----||

VERSE
Same as intro except without the (1 3 1 0) melody on B string
CHORUS
[E] [G] [D] [G] [C] [G] [D] [D] 

Important: The song above is NOT stored on the Chordie server. The original song is hosted at www.xguitar.com. Chordie works as a search engine and provides on-the-fly formatting. Chordie does not index songs against artists'/composers' will. To remove this song please click here.

Text color:
Chord color:
Chord grids: 
Font size:    
Page size: 

C D E G
Rate #6 of 7 versions

Jango Player

Login - add to songbook

SHARE PAGE  



You need to log in to post comments