Guitar Tabs, Chords and Lyrics
Major upgrade!! After one year development the new version of Chordie is now online! Please give feedback.


Accelerator  Therapy?

From alex@mail.demon.net Wed Apr 9 12:46:35 1997
Date: Thu, 9 Apr 1998 01:19:27 +0100 (BST)
From: Alex Kruczkowski
To: guitar@olga.net
Subject: Accelerator by Therapy?
Accelerator by Therapy?
This is the original version on the album Nurse, as opposed to the
version on the Shortsharpshock EP. It can also be found on the
Kalifornia soundtrack album.
Note: A=10, B=11, etc.
 
 ------------------------------------------------------------------------------

[G5]  
 
 E|----------------|----------------|----------------|----------------|
 B|----------------|----------------|----------------|----------------|
 G|----------------|----------------|----------------|----------------|
 D|5-------5-------|5-------5-------|5-------5-------|5---5---5---5---|
 A|5-------5-------|5-------5-------|5-------5-------|5---5---5---5---|
 E|3-------3-------|3-------3-------|3-------3-------|3---3---3---3---|

[E]  
 
 E|----------------|----------------|----------------|----------------|
 B|----------------|----------------|----------------|----------------|
 G|-------------67-|-------------67-|-------------67-|-------------67-| x2
 D|----------------|----------------|----------------|----------------|
 A|7-7-7-7-7-7-----|7-7-7-7-7-7-----|7-7-7-7-7-7-----|7-7-7-7-7-7-----|
 E|-----------9----|-----------9----|-----------9----|-----------9----|

D5 (drums)
 
 E|----------------|----------------|----------------|----------------|
 B|----------------|----------------|----------------|----------------|
 G|----------------|----------------|----------------|----------------|
 D|C...............|................|\---------------|----------------|
 A|C...............|................|\---------------|----------------|
 E|A...............|................|\---------------|----------------|

[E]  
 
 E|----------------|----------------|----------------|----------------|
 B|----------------|----------------|----------------|----------------|
 G|-------------67-|-------------67-|-------------67-|-------------67-|
 D|----------------|----------------|----------------|----------------|
 A|7-7-7-7-7-7-----|7-7-7-7-7-7-----|7-7-7-7-7-7-----|7-7-7-7-7-7-----|
 E|-----------9----|-----------9----|-----------9----|-----------9----|

You son of a bitch You've got no steady job
You've got no friends You've got no girlfriend
 
 E|----------------|----------------|----------------|----------------|
 B|----------------|----------------|----------------|----------------|
 G|-------------67-|-------------67-|-------------67-|-------------67-|
 D|----------------|----------------|----------------|----------------|
 A|7-7-7-7-7-7-----|7-7-7-7-7-7-----|7-7-7-7-7-7-----|7-7-7-7-7-7-----|
 E|-----------9----|-----------9----|-----------9----|-----------9----|

You say I'm cheap The answer to the question
You're just like me Put to you by me
[D5] [E]  
 
 E|----------------|----------------|----------------|----------------|
 B|----------------|----------------|----------------|----------------|
 G|----------------|----------------|-------------67-|-------------67-|
 D|C...............|................|----------------|----------------|
 A|C...............|................|7-7-7-7-7-7-----|7-7-7-7-7-7-----|
 E|A...............|................|-----------9----|-----------9----|

I'm the driver
[D5]  
 
 E|----------------|----------------|
 B|----------------|----------------|
 G|----------------|----------------|

D|C...............|................|
A|C...............|................|
E|A...............|................|
I'm in control
[E5]  
 
 E|----------------|----------------|----------------|----------------|
 B|----------------|----------------|----------------|----------------|
 G|----------------|----------------|----------------|----------------|

D|2...............|................|................|................|
A|2...............|................|................|................|
E|0...............|................|................|................|
 
 E|----------------|----------------|----------------|----------------|
 B|----------------|----------------|----------------|----------------|
 G|----------------|----------------|----------------|----------------|

D|................|................|................|................|
A|................|................|................|................|
E|................|................|................|................|
I've got no motivation All my destinations
I don't need friends Are leased for my own ends
[E]  
 
 E|----------------|----------------|----------------|----------------|
 B|----------------|----------------|----------------|----------------|
 G|----------------|----------------|----------------|----------------|
 D|----------------|----------------|----------------|----------------|
 A|2/7-7-7-7-7-7-7-|7-7-7-7-7-7-7-7-|7-7-7-7-7-7-7-7-|7-7-7-7-7-7-7-7-|
 E|----------------|----------------|----------------|----------------|

I only answer To my own mind This speed is what I need
To help me kill some time
[D5] [E]  
 
 E|----------------|----------------|----------------|----------------|
 B|----------------|----------------|----------------|----------------|
 G|----------------|----------------|-------------67-|-------------67-|
 D|C...............|................|----------------|----------------|
 A|C...............|................|7-7-7-7-7-7-----|7-7-7-7-7-7-----|
 E|A...............|................|-----------9----|-----------9----|

I'm the driver
[D5]  
 
 E|----------------|----------------|
 B|----------------|----------------|
 G|----------------|----------------|

D|C...............|................|
A|C...............|................|
E|A...............|................|
I'm in control
[E5] [C5] [B5A5F5] [E5] [C5] [B5A5F5] [E5] [C5] [B5A5F5] [E5] [C5] [B5A5F5]  
 
 E|----------------|----------------|----------------|----------------|
 B|----------------|----------------|----------------|----------------|
 G|9-9-----------A-|9-9-----------A-|9-9-----------A-|9-9-----------A-| x3
 D|9-9-A-----9-7-A-|9-9-A-----9-7-A-|9-9-A-----9-7-A-|9-9-A-----9-7-A-|
 A|7-7-A-----9-7-8-|7-7-A-----9-7-8-|7-7-A-----9-7-8-|7-7-A-----9-7-8-|
 E|----8-----7-5---|----8-----7-5---|----8-----7-5---|----8-----7-5---|

[E5] [C5] [B5A5F5] [E5] [C5] [B5A5F5] [E5] [C5] [B5A5F5] [E5] [C5] [B5A5F5]  
 
 E|----------------|----------------|----------------|----------------|
 B|----------------|----------------|----------------|----------------|
 G|9-9-----------A-|9-9-----------A-|9-9-----------A-|9-9-----------A-|
 D|9-9-A-----9-7-A-|9-9-A-----9-7-A-|9-9-A-----9-7-A-|9-9-A-----9-7-A-|
 A|7-7-A-----9-7-8-|7-7-A-----9-7-8-|7-7-A-----9-7-8-|7-7-A-----9-7-8-|
 E|----8-----7-5---|----8-----7-5---|----8-----7-5---|----8-----7-5---|

Need to drive I feel good Need to drive I'm alive
[E5] [C5] [B5A5F5] [E5] [C5] [B5A5F5] [E5] [C5] [B5A5F5] [E5] [C5] [B5A5F5]  
 
 E|----------------|----------------|----------------|----------------|
 B|----------------|----------------|----------------|----------------|
 G|9-9-----------A-|9-9-----------A-|9-9-----------A-|9-9-----------A-|
 D|9-9-A-----9-7-A-|9-9-A-----9-7-A-|9-9-A-----9-7-A-|9-9-A-----9-7-A-|
 A|7-7-A-----9-7-8-|7-7-A-----9-7-8-|7-7-A-----9-7-8-|7-7-A-----9-7-8-|
 E|----8-----7-5---|----8-----7-5---|----8-----7-5---|----8-----7-5---|

Need to drive Feel so alive Need to drive Keep you alive
[D5] [E]  
 
 E|----------------|----------------|----------------|----------------|
 B|----------------|----------------|----------------|----------------|
 G|----------------|----------------|-------------67-|-------------67-|
 D|C...............|................|----------------|----------------|
 A|C...............|................|7-7-7-7-7-7-----|7-7-7-7-7-7-----|
 E|A...............|................|-----------9----|-----------9----|

I'm the driver
[D5] [E5]  
 
 E|----------------|----------------|----------------|
 B|----------------|----------------|----------------|
 G|----------------|----------------|----------------|
 D|C...............|................|2---------------|
 A|C...............|................|2---------------|
 E|A...............|................|0---------------|

I've lost control
 
 ------------------------------------------------------------------------------

This transcription was done by Alex Kruczkowski (alex@roman.demon.co.uk),
which is partly based on transcriptions by Brian Kelly
(cof3014@sparcserver.rtc-tallaght.ie) and Martin Wikstrom
(johanw@krille.update.uu.se).
You can find the web's most comprehensive archive of Therapy? tablature
at .
 
 ------------------------------------------------------------------------------


Important: The song above is NOT stored on the Chordie server. The original song is hosted at www.xguitar.com. Chordie works as a search engine and provides on-the-fly formatting. Chordie does not index songs against artists'/composers' will. To remove this song please click here.

Text color:
Chord color:
Chord grids: 
Font size:    
Page size: 

C5 D5 E E5 G5
Rate #6 of 6 versions

Jango Player

Login - add to songbook

SHARE PAGE  




You need to log in to post comments