Guitar Tabs, Chords and Lyrics
Major upgrade!! After one year development the new version of Chordie is now online! Please give feedback.


Iâ??m a Fake   The Used

 
 ----------------------------------------------------------------------------

 


 I'M A FAKE - The Used


 

 
 ----------------------------------------------------------------------------

 


 Tabbed by: Jesse Benedick


 Email: JBMetal311@Yahoo.com


 


 Tuning: DADGBE


 


 

 
 e|-------------------------------------------------------------------------|
 B|-------------------------------------------------------------------------|
 G|-----------------9999999--------------------5555555----------------------|
 D|-----------------9999999--------------------5555555----------------------|
 A|-----------------7777777--------------------3333333----------------------|
 D|-------------------------------------------------------------------------|

 


 Intro Behind Burt's Poem (Repeat 2x)


 

 
 e|------15-------------------------------------------------|
 B|---------13-----13---------12-----12----12---------------|
 G|------------12-----12----12---12~----12~---12~-----------|
 D|-----------------------10--------------------------------|
 A|---------------------------------------------------------|
 D|---------------------------------------------------------|
 e|--------------------------------------------------------|----------------|
 B|--------------------------------------------------------|-777777--888888-|
 G|------9999999--------------------5555555----------------|-555555--555555-|
 D|------9999999--------------------5555555----------------|----------------|
 A|------7777777--------------------3333333----------------|----------------|
 D|--------------------------------------------------------|----------------|

 


 Pre-Chorus (Repeat 2x)


 

 
 e|---------------------------------------------------------|
 B|---------------------------------------------------------|
 G|--------------------------------9999--7777---------------|
 D|--22222222--55555555--00000000--xxxx--xxxx---------------|
 A|--22222222--55555555--00000000--7777--5555---------------|
 D|--22222222--55555555--00000000---------------------------|

 


 Chorus


 

 
 e|--------------------------------|------------------|
 B|--5~---8~-----------------------|--5~---3~---------|
 G|-------------b5r4b5--b5r4b5-----|------------5~----|
 D|--------------------------------|------------------|
 A|--------------------------------|------------------|
 D|--------------------------------|------------------|

 


 Breakdown Notes (Repeat 2x) (Play 1x after the first 2)


 e|-----|


 B|--5--|


 G|--x--|


 D|--2--|


 A|-----|


 D|-----|


 (Chord at the end of the breakdown)


 

 
 e|---------------------------|---------------------------------------------|
 B|---------------------------|------------------1--------------------------|
 G|---------------------------|------------------0--------------------------|
 D|----2222--5555--0000-------|-2222--2222--2222----2222--0-0-0-0-----------|
 A|----2222--5555--0000-------|-2222--2222--2222----2222--0-0-0-0-----------|
 D|----2222--5555--0000-------|-2222--2222--2222----2222--0-0-0-0-----------|


Important: The song above is NOT stored on the Chordie server. The original song is hosted at www.xguitar.com. Chordie works as a search engine and provides on-the-fly formatting. Chordie does not index songs against artists'/composers' will. To remove this song please click here.

This song is displayed as text-only. Transposing and tuning is only available for chordpro-songs.
Rate #1 of 1 versions

Jango Player

Login - add to songbook

SHARE PAGE  




You need to log in to post comments