Chordie logo


Bron-yr-aur   Led Zeppelin












NNTP-Posting-Host: 131.202.85.11

Well here it is.  I didn't tab it, so give credit where credit is due.




I thought I'd share this song with you all, since it's so fun to play...

Bron-Yr-Aur
Tuning: C A C G C E

|-----|-----------------------|-----------------------|--------0--------------|
|-----|--------0--------------|--------0--------------|-----------------------|
|-----|-----0-----------0-----|-----0-----------0-----|-----0-----------0-----|
|-----|--------------0--------|--------------0--------|--------------0--------|
|--0--|-h3-----------------0--|-h3-----------------0--|-h3-----------------0--|
|-----|-----------0-----------|-----------0-----------|-----------0-----------|


|--------0-----------------|--------0-----------------|--------0-----------------|
|--------------------0-----|--------------------0-----|--------------------0-----|
|-----0-----------0--------|-----0-----------0--------|-----0-----------0--------|
|--------------0-----------|--------------0-----------|--------------0-----------|
|-h3--------------------0--|-h3--------------------0--|-h3--------------------0--|
|-----------0--------------|-----------0--------------|-----------0--------------|


|--------0-----------------|--------0-----------------|-----------3p-0-----------|
|--------------------0-----|--------------------------|--2--------------2-----0--|
|-----0-----------0--------|-----0-----------0--------|-----0--------------0-----|
|--------------0-----------|--------------0-----------|--------2--------2--------|
|-h3--------------------0--|-h3-----------------------|--2-----------2-----------|
|-----------0--------------|-----------0--------------|--------------------------|


|--------------------------|-----------0-----------0--|--------------------------|
|-----------0--------------|--5--------------------0--|-----------0--------------|
|--------0-----------0-----|-----4-----------4-----0--|--------0-----------0-----|
|-----0-----------0--------|--------0-----------0-----|-----0-----------0--------|
|--3-----------------------|--5-----------5-----------|--3-----------------------|
|--------0-----0-----------|--------------------------|--------0-----0-----------|


|-----------3p-0-----------|--------------------------|-----------0--------------|
|--2--------------2--------|-----------0--------------|--5--------------------0--|
|-----0--------------0-----|--------0-----------0-----|-----4-----------4--------|
|--------2-----------------|--0--------------0--------|--------0-----------0-----|
|--2-----------2--------3--|-----3--------------------|--5-----------5-----------|
|--------------------------|--------0-----0-----------|--------------------------|


|--------------------------|-----------------------0--|--------------------------|
|-----------0--------------|-----------0--------------|--0--------0--------------|
|--------0-----------------|--0-----------------0-----|--------0-----------0-----|
|-----0-----------0--------|-----0-----------0--------|-----------------0--------|
|--3-----------------------|--------0-----0-----------|--0-h3--------------------|
|--------0-----0-----0-----|--5-----------------0-----|--------------0-----------|


|-----------------------0--|--------------------------|-----------3-p0-----------|
|-----------0--------------|--0--------0--------------|--2--------------2-----0--|
|--0-----------------0-----|--------0-----------0-----|-----0--------------0-----|
|-----0-----------0--------|-----------------0--------|--------2--------2--------|
|--------0-----0-----------|--0-h3--------------------|--2-----------2-----------|
|--5-----------------0-----|--------------0-----------|--------------------------|


|--------------------------|-----------0-----------0--|--------------------------|
|-----------0--------------|--5--------------------0--|-----------0--------------|
|--------0-----------0-----|-----4-----------4-----0--|--------0-----------0-----|
|-----0-----------0--------|--------0-----------0-----|-----0-----------0--------|
|--3-----------------------|--5-----------5-----------|--3-----------------------|
|--------0-----0-----------|--------------------------|--------0-----0-----------|


|--------------------------|--------------------------|--------------------------|
|-----------0-----------2--|-----------4-----------0--|-----------0-----------2--|
|--------0-----------0-----|--------4-----------0-----|--------0-----------0-----|
|-----0-----------2--------|-----4-----------4--------|-----0-----------2--------|
|-/3-----------2-----------|--0-----------0-----------|-/3-----------2-----------|
|--------------------------|--------------------------|--------------------------|


|--------------------------|--------------------------|--------------------------|
|-----------4-----------0--|-----------0-----------2/4|----------4h5p4--------4h5|
|--------4-----------0-----|--------0-----------0-----|-------4------------4-----|
|-----4-----------4--------|-----0-----------2--------|----4------------4--------|
|--0-----------0-----------|-/3-----------2-----------|-0------------0-----------|
|--------------------------|--------------------------|--------------------------|


|--------------------------|--------------------------|----------------------------|
|-p4--------4-----------5--|-----------4-----------4--|-/5--------5---/7--------0--|
|--------4-----------4-----|--------4-----------4-----|--------5-------------7-----|
|-----4-----------4--------|-----4-----------4--------|-----5-------------7--------|
|--0-----------0-----------|--0-----------0-----------|----------------------------|
|--------------------------|--------------------------|-/5-----------5/7-----7-----|


|--------------------------|----------------------------|--------------------------|
|-----------0-----------0--|-----------5---/7--7-----0--|-----------0-----------0--|
|--------0-----------0-----|--------5-------------7-----|--------0-----------0-----|
|-----0-----------0--------|-----5----------------------|-----0-----------0--------|
|-/3-----------------------|----------------------7-----|-/3-----------------------|
|--------------0-----------|2/5-----------5/7-----------|--------------0-----------|


|----------------------------|--------------------------|----------------------------|
|-----------5---/7--------0--|-----------0-----------0--|-----------5---/7--7-----0--|
|--------5-------------7-----|--------0-----------0-----|--------5-------------7-----|
|-----5-------------7--------|-----0-----------0--------|-----5----------------------|
|----------------------------|-/3-----------------------|----------------------------|
|--5-----------5/7-----7-----|--------------0-----------|--5-----------5/7-----7-----|


|--------------------------|-----------3-p0-----------|--------------------------|
|-----------0--------------|--2--------------2-----0--|-----------0--------------|
|--------0-----------0-----|-----0--------------0-----|--------0-----------0-----|
|-----0-----------0--------|--------2--------2--------|-----0-----------0--------|
|-/3-----------------------|--2-----------2-----------|--3-----------------------|
|--------------0-----------|--------------------------|--------0-----0-----------|


|-----------0-----------0--|--------------------------|-----------3-p0-----------|
|--5--------------------0--|-----------0--------------|--2--------------2--------|
|-----4-----------4-----0--|--------0----------0------|-----0--------------0-----|
|--------0-----------0-----|-----0-----------0--------|--------2-----------------|
|--5-----------5-----------|--3-----------------------|--2-----------2--------3--|
|--------------------------|--------0-----0-----------|--------------------------|


|--------------------------|-----------0-----------0--|--------------------------|
|-----------0--------------|--5--------------------0--|-----------0--------------|
|--------0-----------0-----|-----4-----------4-----0--|--------0-----------------|
|--0--------------0--------|--------0-----------0-----|-----0-----------0--------|
|-----3--------------------|--5-----------5-----------|--3-----------------------|
|--------0-----0-----------|--------------------------|--------0-----0-----0-----|


|-----------------------0--|--------------------------|-----------------------0--|
|-----------0--------------|--0--------0--------------|-----------0--------------|
|--0-----------------0-----|--------0-----------0-----|--0-----------------0-----|
|-----0-----------0--------|-----------------0.-------|-----0-----------0--------|
|--------0-----0-----------|--0-h3--------------------|--------0-----0-----------|
|--5-----------------0-----|--------------0-----------|--5-----------------0-----|


|--------------------------|-----------3-p0-----------|--------------------------|
|--0--------0--------------|--2--------------2-----0--|-----------0--------------|
|--------0-----------0-----|-----0--------------0-----|--------0-----------0-----|
|-----------------0--------|--------2--------2--------|-----0-----------0--------|
|--0-h3--------------------|--2-----------2-----------|--3-----------------------|
|--------------0-----------|--------------------------|--------0-----0-----------|


|-----------0-----------0--|--------------------------|--------------------------|
|--5--------------------0--|-----------0--------------|-----------0-----------2--|
|-----4-----------4-----0--|--------0-----------0-----|--------0-----------0-----|
|--------0-----------0-----|-----0-----------0--------|-----0-----------2--------|
|--5-----------5-----------|--3-----------------------|--3-----------2-----------|
|--------------------------|--------0-----0-----------|--------------------------|


|--------------------------|--------------------------|--------------------------|
|-/4--------4h5p4--------0-|-----------0-----------2--|-/4--------4h5p4--------0-|
|--------4------------4----|--------0-----------0-----|--------4------------4----|
|-----4------------4-------|-----0-----------2--------|-----4------------4-------|
|--0------------0----------|-/3-----------2-----------|--0------------0----------|
|--------------------------|--------------------------|--------------------------|


|--------------------------|--------------------------|--------------------------|
|-----------0-----------2--|-/4--------4h5p4-----4----|-----------5-----------4--|
|--------0-----------0-----|--------4-----------------|--------4-----------4-----|
|-----0-----------2--------|-----4------------4-------|-----4-----------4--------|
|-/3-----------2-----------|--0------------0----------|--0-----------0-----------|
|--------------------------|--------------------------|--------------------------|


|--------------------------|--------------------------|--------------------------|
|-----------5-----------4--|-/5--------5/7--------0---|-----------0-----------0--|
|--------4-----------4-----|--------5----------7------|--------0-----------0-----|
|-----4-----------4--------|-----5----------7---------|-----0-----------0--------|
|--0-----------0-----------|-/5-----------------------|-/3-----------------------|
|--------------------------|------------/7------------|--------------0-----------|


|----------------------------|--------------------------|----------------------------|
|-----------5---/7--7-----0--|-----------0-----------0--|-----------5---/7--7-----0--|
|--------5-------------7-----|--------0-----------0-----|--------5-------------7-----|
|-----5----------------------|-----0-----------0--------|-----5----------------------|
|----------------------------|-/3-----------------------|----------------------------|
|2/5-----------5/7-----7-----|--------------0-----------|2/5-----------5/7-----7-----|


|--------------------------|-------------------------|--------------------------|
|-----------0-----------0--|-----------5---/7--7-----|-----------4-----------5--|
|--------0-----------0-----|--------5-------------7--|--------4-----------4-----|
|-----0-----------0--------|-----5-------------------|-----4-----------4--------|
|-/3-----------------------|-------------------------|--0-----------0-----------|
|--------------0-----------|2/5-----------5/7-----7--|--------------------------|


|--------------------------|--------------------------|--------------------------|
|-----------4-----------5--|-----------4-----------5--|-----------4-----------4--|
|--------4-----------4-----|--------4-----------4-----|--------4-----------4-----|
|-----4-----------4--------|-----4-----------4--------|-----4-----------4--------|
|--0-----------0-----------|--0-----------0-----------|--0-----------0-----------|
|--------------------------|--------------------------|--------------------------|


|-----------------------0--|-----------0-----------0--|-----------0-----------0--|
|-----------0--------0-----|--------5-----------5-----|--------5-----------5-----|
|--------0--------5--------|-----7-----------7--------|-----7-----------7--------|
|-----5--------7-----------|--0-----------0-----------|--0-----------7-----------|
|--7-----------------------|--------------------------|--------------------------|
|--------------------------|--------------------------|--------------------------|


|-----------0-----------0--|-------------|
|--------5-----------5-----|--0----------|
|-----7-----------7--------|--0----------|
|--0-----------7-----------|--0----------|
|--------------------------|--3----------|
|--------------------------|--0----------|

Coming this summer...the Led Zeppelin Tablature Home Page by yours truly!
Watch for it...



-- 
Andrew M. Gray
amgray@teleport.com
psu00453@odin.cc.pdx.edu




Important: The song above is NOT stored on the Chordie server. The original song is hosted at getsome.org. Chordie works as a search engine and provides on-the-fly formatting. Chordie does not index songs against artists/composers will. To remove this song please click here.

This song is displayed as text-only. Transposing and tuning is only available for chordpro-songs.

Login - add to songbook

Rating click stars to rate

Layout
Accuracy

SHARE PAGE  




You need to log in to post comments