"yes"; ?> the death of john smith 2. the longest line by Nofx - guitar chords, guitar tabs and lyrics - chordie

the death of john smith 2. the longest line

Nofx


Date: Tues, October 21 1997
Group: NOFX Album: The Longest Line Released: 1992 fat wreck chords Track: 1 Title: the death of john smith
: - let ring pm - palm mute h - hammer on x - scratch
intro
|-----------------------------------------------------------| |-----------------------------------------------------------| |-----7:--7:------5---------7:--7:------5----------------12-| |-7:--7:--7:--3---5--5--7:--7:--7:--3---5--5--7---7-9-10-12-| |-7:--5:--5:--3---3--5--7:--5:--5:--3---3--5--7---7-9-10-10-| |-5:----------1------3--5:----------1------3--5---5-7--8----|
next it's...
|--------------------------------------------------------- |--------------------------------------------------------- |---------5h6-5-------10-10-9---------5h6-5--------------- |-7-7-5h7-------6-7-7-10-10-9-7-7-5h7-------6-3-3-x-x-5-5- |-7-7-------------7-7--8--8-7-7-7-------------3-3-x-x-5-5- |-5-5-------------5-5---------5-5-------------1-1-x-x-3-3-
pm_____| --------------------------------------------------------- --------------------------------------------------------- ---------5h6-5-----------------------5h6-5--------------- -7-7-5h7-------6-7-7--4-5-6--7-7-5h7-------6-3-3-x-x-5-5- -7-7-------------7-7--4-5-6--7-7-------------3-3-x-x-5-5- -5-5-------------5-5--2-3-4--5-5-------------1-1-x-x-3-5-
- play the last part three times
---------------------------------------------|-------------| ---------------------------------------------|-------------| ---------5h6-5-------10-10-9---------5h6-5---|-------------| -7-7-5h7-------6-7-7-10-10-9-7-7-5h7-------6-|-3-3-x-x-5-5-| -7-7-------------7-7--8--8-7-7-7-------------|-3-3-x-x-5-5-| -5-5-------------5-5---------5-5-------------|-1-1-x-x-3-3-|
verse
|----------------------------------------------------| |----------------------------------------------------| |-----------------------------------------5----------| |-7-7-7-7---7-7-7-7---3-3-3-3-3-3------5----------5--| |-7-7-7-7---7-7-7-7---3-3-3-3-3-3---3----------5-----| |-5-5-5-5---5-5-5-5---1-1-1-1-1-1-----------3--------|
chorus
|-------------------------------------------------------------------------| |-------------------------------------------------------------------------| |-------------5-5-5-------------------4-4-4-5-5-5-------------------------| |-3-3-3-3-3-3-5-5-5-5-5-5-3-3-3-3-3-3-4-4-4-5-5-5-3-3-3-3-3-3-5-5-5-5-5-5-| |-3-3-3-3-3-3-3-3-3-5-5-5-3-3-3-3-3-3-2-2-2-3-3-3-3-3-3-3-3-3-5-5-5-5-5-5-| |-1-1-1-1-1-1-------3-3-3-1-1-1-1-1-1-------------1-1-1-1-1-1-3-3-3-3-3-3-|
post chorus
|----------------------------------------------------------------------- |----------------------------------------------------------------------- |---------5h6-5---10-10-9----------5-5---------------------------------- |-7-7-5h7-------6-10-10-9--7-7-5h7-----7-6-5-5-5-----------7-7-7-5-6-7-- |-7-7--------------8--8-7--7-7-------------------7-5-3-5---7-7-7-5-6-7-- |-5-5----------------------5-5---------------------------5-5-5-5-3-4-5--
----------------------------------------------------------------------- ----------------------------------------------------------------------- -10-10-10---------5-5-------------------------------------------------- -10-10-10-7-7-5h7-----7-6-5-5-5----------------------------------7-7-7- --8--8--8-7-7-------------------7-5-3-5-8-8-8-8-5-7-8-10-8-12-12-7-7-7- ----------5-5----------------------------------------------------5-5-5-
-------------------------------------------------| -------------------------------------------------| ---------5h6-5---10-10-9---------5h6-5-----------| -7-7-5h7-------6-10-10-9-7-7-5h7-------6-3-x-x-5-| -7-7--------------8--8-7-7-7-------------3-x-x-5-| -5-5---------------------5-5-------------1-x-x-3-|
bridge
pm___________________________________________| |--------------------------------------------------------------------------- |--------------------------------------------------------------------------- |---------------------------------7-7-7-7-7-7-7-7--9-7-9-7-6-7--9-7-6-7-7-6- |-7-7-7-7-7-7-7-7-5-5-5-5-5-5-5-5-7-7-7-7-7-7-7-7--7-5-7-5-4-5--7-5-4-5-5-4- |-7-7-7-7-7-7-7-7-5-5-5-5-5-5-5-5-5-5-5-5-5-5-5-5--7-5-7-5-4-5--7-5-4-5-5-4- |-5-5-5-5-5-5-5-5-3-3-3-3-3-3-3-3-------------------------------------------
|------------------------------| |------------------------------| |-9-6--9-7-6-7-9-7-6-7-7-6-9-6-| |-7-4--7-5-4-5-7-5-4-5-5-4-7-4-| |-7-4--7-5-4-5-7-5-4-5-5-4-7-4-| |------------------------------|
post bridge
|--------------------------------------------------------| |--------------------------------------------------------| |---------5---------------5---------------5------7-5-----| |-7-7-5h7----7-5--7-7-5h7----7-5--7-7-5h7----7-5-----7-5-| |-7-7-------------7-7-------------7-7--------------------| |-5-5-------------5-5-------------5-5--------------------|
outro - play once then repeat the end bit three times
|---------------------------------------------|-------------| |---------------------------------------------|-------------| |---------5h6-5-------10-10-9---------5h6-5---|-------------| |-7-7-5h7-------6-7-7-10-10-9-7-7-5h7-------6-|-3-3-x-x-5-5-| |-7-7-------------7-7--8--8-7-7-7-------------|-3-3-x-x-5-5-| |-5-5-------------5-5---------5-5-------------|-1-1-x-x-3-3-|
then play...
|--------------------------| |--------------------------| |---------5h6-5------------| |-7-7-5h7-------6-7--5--7--| |-7-7-------------7--5--7--| |-5-5-------------5--3--5--|
lyrics
i've got respect from the community, i've got my bridge game to look forward to i've got this chance, a golden opportunity as long as i keep doing what i'm supposed to you see my wife and kids, they depend on me to provide them with nothing but the best i feel it's my duty, my obligation to live up to the standards society suggests so i'll keep on working for their benefit and i'll keep on drinking, i'll keep on believing in my life another year of slaving and smiling, buying and trading living the life of a wealthy man, but somehow i don't feel so rich inside but that doesn't make sense, i just had a two week vacation as soon as i get this operation taken care of i'll start enjoying the good things in life when the pity spins your mind, dakness fills your heart and i won't be around, when you're feeling all alone then you'll know it's time, to go into the ground when the pity spins your mind, dakness fills your heart, and i won't be around i've got my family, friends and associates to stand by me as threshold comes near within their faces i see grave concern as i ask myself if their thoughts are sincere after all these years of being complacent what do i get? tenderness, affection, a true sense of love? no! just pain through a bodychalk full of regret i'll keep on believing my life still has value, and i'll keep on laughing why can't i stop laughing? i can't stop the laughing












variations - click chord images
Transpose chords:
Tuning:
Cool service:
View: Size:
A  A  A
Rating:
Layout:
  • Currently 0/5 Stars.
  • 1
  • 2
  • 3
  • 4
  • 5
 
Accuracy:
  • Currently 2/5 Stars.
  • 1
  • 2
  • 3
  • 4
  • 5
 
click stars to rate
Chordie recommends:
Get acoustic guitar lessons and electric guitar lessons at JamPlay.com
Songbook:
Login to add this song to your songbook
Support the artist
Preview/buy this song
MSN Music
Why this non-profit ad?

 
login to add comments/video/corrections