Guitar Tabs, Chords and Lyrics


Yesterday Is Here   Yes


----------------------|------------------|--------------|-------------








----------------------|------0--2--3--2--|--0-----------|-------------








3:--------------------|--4:--4-----------|-----2--1-----|--7:---------



4:-----------------4--|--4:--4-----------|-----------3--|--4:--4------



----------2--4--5-----|------2-----------|--------------|-------------



----4--5--------------|------------------|--------------|-------------





                                    


Q  e  q  q  q  q         q  e  e  e  e         e  e  e  q  h


                                                                            


------------------|---------------------|---------------r-----|-------
2--0--------------|---------------------|---------------e-----|-------
------2--1--------|--3:-----------------|--5:--------4--s-----|-------
------------3--0--|--4:-----------------|--4:-----4-----t-----|-------
------------------|------4--------2--4--|------5-----------2--|-------
------------------|---------4--5--------|---------------------|-------





                                    


    Q  e  q  q     q  q  q  q         q  Q  e  q  q  q  q


                                                                            


----------------|--------------|---------------------------|----------
----0--2--3--2--|--0-----------|---------2--0--------------|----------
4:--4-----------|-----2--1-----|--7:-----------2--1--------|--2:------
4:--4-----------|-----------3--|--4:--4--------------3--0--|--4:------
----2-----------|--------------|---------------------------|----------
----------------|--------------|---------------------------|----------





                                    


q  q         w         e  e  e  e s s  e         q  e  e  q


                                                                            


---r--|------5--|-------------------------|---------------r--|--------
---e--|------2--|------------2--3p2p0-----|------0--0-----e--|--------
---s--|--4:--2--|--3:--2--4------------2--|--5:--------2--s--|--2:----
---t--|--4:--2--|--4:---------------------|--8:-----------t--|--4:----
4-----|------0--|-------------------------|------------------|--------
------|---------|-------------------------|------3--3--2-----|--------





                                    


e  e  q  e         Q  e  e  q  e  e  e  e         Q  e  e  Q  e  e


                                                                            


------------|------------------------------|--------------------------
------------|------------------------------|--------------------------
0--0--------|--4:--------------------------|--7:-----------2----------
------4--0--|--4:--2--------2-----------0--|--8:--1-------------------
------5-----|---------0-----0-----0-----0--|---------0-----0-----0----
0--0--------|------3-----3-----3-----3-----|------2-----2-----2-------





                                    


e         q  e         e  e  s e  s e  q  e         e  e  e  e  e


                                                                            


---|------0--0--|------2--4--5p4--2p0--2-----|------0-----------------
---|------0-----|-------------------------3--|---------0--3-----2-----
---|--3:--1-----|--4:------------------------|--3:-----------4--------
1--|--8:--2-----|--4:------------------0-----|--4:--2-----------------
---|------2-----|----------------------------|------------2-----0-----
2--|------0-----|----------------------------|------------------------





                                    


e         e  e  e  e  e  e  e  e     E  E  E  e  q     e  e  e


                                                                            


---|------------------------------|-----------------------------|-----
---|------1--------1--------1-----|-----3-----3--0-----0--0--0--|-----
2--|--4:-----2-----------2-----2--|-----2-----2--2-----2--2--2--|-----
---|--4:--------------------------|--------------------0--0--0--|-----
---|------3-----3-----3-----3-----|--2-----2-----2-----2--2--2--|-----
---|------------------------------|-----------------------------|-----





                                    


E  q  E  q  e  e  e  e     E  E  E  E  q  e  e  q         e


                                                                            


---0-----0--0-----------|-----4-----4--0--0--0--0--|------0--|--------
---1-----1--1--3--1--0--|-----0-----0--0--0--0--0--|------0--|--------
------------------------|-----2-----2--2--2--2--2--|--1:--2--|--2:----
------------------------|--------------------------|--8:--0--|--4:----
3-----3-----3-----------|--2-----2-----2--2--2--2--|------2--|--------
------------------------|--------------------------|---------|--------





                                    


q^ q^ q^        e^ e^ e^ e^ e^ e^ e^ e^ e^ e^ e^ e^ e^ e^ e^


                                                                            


---------|------------------------------------------1--3--5--|--------
---------|---------------------------------1--3--5-----------|--------
---------|--5:--------------------0--2--4--------------------|--2:----
---------|--4:-----------0--2--3-----------------------------|--4:----
---------|------0--2--3--------------------------------------|--------
0--1--4--|---------------------------------------------------|--------





                                    


h         q^  q^  q^  h   q     q^  q^  q^  h   h          q  e  e


                                                                            


7--|------12--12--12------r--|--12--12--12----------|-----------------
---|------------------12--e--|--------------12------|------------1----
---|--4:--10--------------s--|--10------------------|--6:--2----------
---|--4:------------------t--|----------------------|--4:-----2-------
---|-------------------------|----------------------|------0----------
---|-------------------------|------------------12--|-----------------





                                    


e  e  s  s  q  q  e  e         e  e  e  e         e  e  e  e  e  e


                                                                            


------------------------|------------------|---------1-----1--0-------
---0--1--0-----0--------|---------0--1--0--|---------3-----3--3--3----
------------2--------2--|--2:--------------|--4:----------------------
------------------------|--4:--2-----------|--4:--0-----0-----0-------
------------------------|------------------|--------------------------
3-----------2-----2-----|------0-----------|--------------------------





                                    


e  e     e^ q^  e^q^ e^q^ e^q^ e^q^ e^q^        e  e  e  e


                                                                           


------|--12h13--0h1-----------------0h1--|------------------|---------
------|----------------------------------|------3--------3--|---------
2-----|----------------------------------|--2:-----4--------|--4:-----
---0--|--------------2h3-------2h3-------|--4:--------4-----|--4:-----
------|----------------------------------|------2-----------|---------
------|-------------------0h1------------|------------------|---------





                                    


e  e  e  Q     e  e  e         e  e  q  e         q  e  e  e  q  e


                                                                           


------------------------|------------------|------2-------------------
0--2--3--0--------------|------0--2--3-----|------------2-----2-------
---------------0-----0--|--2:--------------|--4:-----2--------2-------
---------------0--------|--4:--------------|--4:----------------------
0-----------------------|---------------0--|---------------0-----0----
---------3--------3-----|------2-----------|--------------------------





                                    


e     e^ e^ e^ e^ e^ e^ e^ e^ e^ q      h  e  e  e  e  e  e  q


                                                                           


2--|---------------------------------|-----1-----1-----0--1-----|-----
---|-----0-----0-----0-----0---------|--------------3--------3--|-----
---|---------------------------------|--------2-----------------|-----
---|--4-----5-----7-----9-----9--11--|--0-----------------------|-----
---|---------------------------------|--------------3--------1--|-----
---|---------------------------------|--------------------------|-----





                                    


e  q  e  e  e  e  e     s  e  s  e  q  e  e  e     s   e   s   e


                                                                           


0-----------0--1--0--|--5--5--5--5--5--3--3--0--|--12--12--10--10-----
------3--3-----------|--3--3--3--3--3--3--3-----|--11--11--11--11-----
---------------------|--3--3--3--3--3--3--3-----|--12--12--12--12-----
---------------------|--3--3--3--3--3--5--5-----|---------------------
---1-----0-----------|--5--5--5--5--5--5--5-----|---------------------
---------------------|--3--3--3--3--3--3--3-----|---------------------





                                    


s   s   s  s  e  e  e     h  e  e  e  e  e  e  h           q^ q^ q^


                                                                           


8---8---r--6--6--5--0--|-----1-----1-----0--1-----|-----------0--1----
10--10--e--8--8--------|--------------3--------3--|--------3----------
9---9---s--7--7--------|--------2-----------------|--x--x--2----------
--------t--------------|--0-----------------------|-------------------
-----------------------|--------------3--------1--|--------0----------
-----------------------|--------------------------|-------------------





                                    


   q^ e  q^ q  e  q     q  e  e  e^e^e^ e  e  e^e^e^q     e  e^e^


                                                                           


|--0-----------------|--5--2--4--2h4p2--0--------------|--------------
|-----3--1--3--1--0--|---------------------3--2h3p2p0--|--------------
|--------------------|---------------------------------|--2--1h2------
|--------------------|---------------------------------|--------------
|--3--------2--------|--0------------------------------|--------------
|--------------------|---------------------------------|--------------





                                    


 e^ e  e  e  s s s s w     h   h   h   h          e  e  e  e s s


                                                                           


------------------------|----------12------|--------------------------
------------------------|------19----------|------------2--3p2p0------
p1----------------------|------------------|--3:--2--4----------------
----4--2--0-------------|--12--------------|--4:----------------------
-------------4p2h4p2p0--|------------------|--------------------------
------------------------|--------------12--|--------------------------





                                    


e         q  e  e  q         e  e  q  e         Q  e  e  q  e  e


                                                                           


---|---------------r--|------------------|----------------------------
---|------0--0-----e--|------------------|----------------------------
2--|--5:--------2--s--|--2:--0--0--------|--4:------------------------
---|--8:-----------t--|--4:--------4--0--|--4:--2--------2------------
---|------------------|------------5-----|---------0-----0-----0------
---|------3--3--2-----|------0--0--------|------3-----3-----3---------





                                    


e  e         Q  e  e  Q  e  e  e         q  e         e  e  s e  s


                                                                           


------|---------------------------|------0--0--|------2--4--5p4--2----
------|---------------------------|------0-----|----------------------
------|--7:-----------2-----------|--3:--1-----|--4:------------------
---0--|--8:--1-----------------1--|--8:--2-----|--4:------------------
---0--|---------0-----0-----0-----|------2-----|----------------------
3-----|------2-----2-----2-----2--|------0-----|----------------------





                                    


 e  q  e         e  e  e  e  e  e         e  e  e  e  e  e  e  e


                                                                           


p0--2-----|------0-----------------|----------------------------------
-------3--|---------0--3-----2-----|------1--------1--------1---------
----------|--3:-----------4-----2--|--4:-----2-----------2-----2------
----0-----|--4:--2-----------------|--4:------------------------------
----------|------------2-----0-----|------3-----3-----3-----3---------
----------|------------------------|----------------------------------





                                    


   E  E  E  e  q     e  e  e     E  e^ E  e^ e  e  e  e     E  E


                                                                           


|-----------------------------|-----0-----0--0-----------|-----4------
|-----3-----3--0-----0--0--0--|-----1-----1--1--3--1--0--|-----0------
|-----2-----2--2-----2--2--2--|--------------------------|-----2------
|--------------------0--0--0--|--------------------------|------------
|--2-----2-----2-----2--2--2--|--3-----3-----3-----------|--2---------
|-----------------------------|--------------------------|------------





                                    


E  E  q  e  e  q         e         q^ q^ q^        e^ e^ e^ e^ e^


                                                                           


---4--0--0--0--0--|------0--|---------------|-------------------------
---0--0--0--0--0--|------0--|---------------|-------------------------
---2--2--2--2--2--|--1:--2--|--2:-----------|--5:---------------------
------------------|--8:--0--|--4:-----------|--4:-----------0--2------
2-----2--2--2--2--|------2--|---------------|------0--2--3------------
------------------|---------|------0--1--4--|-------------------------





                                    


e^ e^ e^ e^ e^ e^ e^ e^ e^ e^        h     q^  q^  q^  h   q


                                                                           


---------------------1--3--5--|------7--|--12--12--12------r--|-------
------------1--3--5-----------|---------|--------------12--e--|-------
---0--2--4--------------------|--2:-----|--10--------------s--|-------
3-----------------------------|--4:-----|------------------t--|-------
------------------------------|---------|---------------------|-------
------------------------------|---------|---------------------|-------





                                    


q^  q^  q^  h      q^  q^  q^  q      q^  q^  q^  q      q^ q^ q^


                                                                           


12--12--12------|--19--19--19--19--|--12--12--12--12--|--7--7--7------
------------12--|------------------|--------------10--|---------------
10--------------|--17----------17--|--10--------------|--5------------
----------------|------------------|------------------|---------------
----------------|------------------|------------------|---------------
----------------|------------------|------------------|---------------





                                    


q     q^ q^ q^ q         H  q     w     H  q     w     H  q     w


                                                                           


7--|--2--2--2--2--|------------|-----|--------|-----|--------|--------
---|--------------|------2--3--|--5--|--7--5--|--3--|--2--3--|--5-----
5--|--0-----------|--3:--------|-----|--------|-----|--------|--------
---|--------------|--4:--------|-----|--------|-----|--------|--------
---|--------------|------0--2--|--4--|--5--4--|--2--|--0--2--|--4-----
---|--------------|------------|-----|--------|-----|--------|--------





                                    


   H  q     Q  Q  q     H  q     w     H  q     w     H  q     w


                                                                           


|--------|-----------|--------|-----|--------|-----|--------|---------
|--3--0--|-----------|--2--3--|--5--|--7--5--|--3--|--2--5--|--3------
|--------|--1--2--4--|--------|-----|--------|-----|--------|---------
|--------|-----------|--------|-----|--------|-----|--------|---------
|--2-----|-----------|--0--2--|--4--|--5--4--|--2--|--0--4--|--2------
|-----4--|--0--2--4--|--------|-----|--------|-----|--------|---------





                                    


   h  q  q     h  q  q     w  e  e  e  e     e  e  e  e  e  e  q


                                                                           


|--3--3--3--|-----------|--3--3-----------|--3------------------------
|--0--0--0--|--1--1--1--|--0-----0--------|-----3--------1--1--1------
|--0--0--0--|--0--0--0--|--0--------0-----|--------0------------------
|--0--0--0--|--2--2--2--|--0-----------0--|---------------------------
|-----------|--3--3--3--|-----------------|-----------3---------------
|--3--3--3--|--3--3--3--|--3--------------|---------------------------





                                    


   h  q  q     q  q  q  q     q  q  q  q      w      H  q     H  q


                                                                           


|-----------|--------r-----|--1--3--5--13--|--17--|--------|----------
|--0--0--0--|--------e-----|-----------13--|--13--|--2--3--|--5--2----
|--0--0--0--|--------s-----|--2--4--5--14--|------|--------|----------
|--0--0--0--|--3--3--t--3--|---------------|------|--------|----------
|-----------|--3--3-----3--|---------------|------|--0--2--|--4--0----
|--3--3--3--|--1--1-----1--|---------------|------|--------|----------





                                    


   H  q     w     H  q     Q  Q  q     H  q     Q  Q     q     H


                                                                           


|--------|-----|--------|-----------|--------|--------------|---------
|--7--5--|--3--|--2--5--|--3--0-----|--2--5--|--3--0--------|--2------
|--------|-----|--------|--------1--|--------|-----------1--|---------
|--------|-----|--------|-----------|--------|--------------|---------
|--5--4--|--2--|--0--4--|--2--------|--0--4--|--2-----------|--0------
|--------|-----|--------|-----4--0--|--------|-----4-----0--|---------





                                    


q     Q  Q     w     h  q  q     h  q  h     H  q     w     h  q


                                                                           


---|--------------|-----------|--0--------|--2--0--|-----|------------
5--|--3--0-----2--|--2--------|--------2--|--3-----|--3--|--2---------
---|--------------|--2--2--1--|-----2-----|--------|-----|--2--2------
---|--------------|-----------|--4--------|--0--4--|-----|------------
4--|--2--------0--|--0--------|--------0--|--------|--2--|--0---------
---|-----4--------|-----------|-----------|--------|-----|------------





                                    


q     q  q  q     H  q     Q  Q  q     h  q  q     h  q  h     H


                                                                           


---|--0--------|--------|-----------|-----------|--0--------|--2------
---|-----------|--3--0--|-----------|--2--------|--------2--|--3------
1--|-----2-----|--------|--1--2--4--|--2--2--1--|-----2-----|---------
---|--------4--|--------|-----------|-----------|-----------|--0------
---|--4--------|--2-----|-----------|--0--------|--4-----0--|---------
---|-----------|-----4--|--0--2--4--|-----------|-----------|---------





                                    


q     w     H  q     q  q  q  q     e  e  e  e  q  q     w     w


                                                                           


0--|-----|-----0--|--0--9--0-----|--------------------|--3--|---------
---|--3--|--2--2--|--2--------2--|--------------------|--0--|--1------
---|-----|--2--2--|--2-----------|--------------------|--0--|--0------
---|-----|--------|--------------|--2-----2-----2-----|--0--|--2------
4--|--2--|--0-----|--------------|-----4-----4-----4--|-----|--3------
---|-----|--------|--0-----------|--------------------|--3--|--3------





                                    


   w     w     w  q  q  q     w  q  q  q     q  q  q  q      w


                                                                           


|--3--|-----|--3--3--------|--1-----------|--1--3--5--12--|--17--|----
|--0--|--1--|--0-----0-----|--1--------1--|--1--3--5--13--|--13--|----
|--0--|--0--|--0--------0--|--2-----2-----|--2--4--5--14--|------|----
|--0--|--2--|--0-----------|--3--3--------|---------------|------|----
|-----|--3--|--------------|--3-----------|---------------|------|----
|--3--|--3--|--3-----------|--1-----------|---------------|------|----





                                    


h  q  q     h  q  q     H  q     w     H  q     h  q  q          H


                                                                           


---------|--0--------|--2--0--|-----|--------|-----------|--||--------
2--------|--------2--|--3-----|--3--|--2--5--|--3--------|--||---2----
2--2--1--|-----2-----|--------|-----|--------|--------1--|--||*-------
---------|-----------|--0-----|-----|--------|-----------|--||*-------
0--------|--4-----0--|-----4--|--2--|--0--4--|--2--------|--||---0----
---------|-----------|--------|-----|--------|-----0-----|--||--------





                                    


q     Q  Q     q   9x  H  q     h  q  q  q     H  h  q     h  q  q


                                                                           


---|---------------||--------|--------------|--------0--|-------------
5--|--3--0---------||--2--5--|--3-----------|--2--------|--3-----0----
---|-----------1--*||--------|-----1-----1--|--2--------|-------------
---|--------------*||--------|--------------|-----4-----|-----2-------
4--|--2------------||--0--4--|--2-----------|--0-----4--|--2----------
---|-----4-----0---||--------|--------0-----|-----------|--------4----





                                    


q     w     q  e  e  e  s s e  e     q  e  e  e     e  e  e  e


                                                                           


---|-----|--5---------------------|-----------r--|--------------|-----
---|-----|--------0--2--3p2p0-----|--0--0-----e--|--------------|-----
1--|--2--|-----2---------------2--|--------2--s--|--0--0--------|-----
---|--2--|------------------------|-----------t--|--------4--0--|-----
---|--0--|------------------------|--------------|--------5-----|-----
0--|-----|------------------------|--3--3--2-----|--0--0--------|-----





                                    


e  e  e  e  q^ q^ q^    q  e  e  e  q^ q^ q^    e  e  e  e  e  e


                                                                           


---------------------|-----------------------|------------------------
3--------3-----2--3--|--0--------0--0--2--3--|------------------------
---4--------4--------|-----------------------|------------------------
------4--------------|-----0-----0-----------|--2--------2------------
2-----------0--------|--------2--------------|-----0-----0-----0------
---------------------|--3-----------2--------|--3-----3-----3---------





                                    


e  e     E  E  s  e  e     e  e  e     q  e     e  e  s e  s    e


                                                                           


------|-----------------|-----------|--0--0--|--2--4--5p4--2--|p0-----
------|-----------------|-----------|--0-----|----------------|-------
------|-----------------|--2--------|--1-----|----------------|-------
---0--|-----1-----1-----|-----1-----|--2-----|----------------|-------
---0--|-----------------|-----------|--2-----|----------------|-------
3-----|--2-----2-----2--|--------2--|--0-----|----------------|-------





                                    


q  e     e  e  e  e  e  e     e  e  e  e  e  e  e e     e  e  e  q^


                                                                           


2-----|--0-----------------|-------------------------|----------------
---3--|-----0--3-----2-----|--1--------1-----0--1p0--|-----0----------
------|-----------4-----2--|-----2--2-----2----------|--2-----2--2----
0-----|--2-----------------|--------0----------------|----------------
------|--------2-----0-----|--0----------------------|----------------
------|--------------------|--------------3----------|--1--------0----





                                    


q^ q^    e  e  e  e  e  e  e  e     e  E  s  e  q     e  q     q^


                                                                           


------|--0--------0--------------|-----4-----4--0-----0--0--|---------
0--1--|-----1-----------3--1--0--|-----0-----0--0-----0--0--|---------
------|--------------------------|-----2-----2--2-----2--2--|---------
------|--------------------------|--------------------------|---------
------|--3-----3-----3-----------|--2-----2-----2-----2--2--|---------
------|--------------------------|--------------------------|--0------





                                    


 q^q^    e^e^e^ e^e^e^ e^e^e^ e^e^e^ e^e^e^    h     q^  q^  q^


                                                                           


------|------------------------------1h3h5--|--7--|--12--12--12-------
------|-----------------------1h3h5---------|-----|-------------------
------|----------------0h2h4----------------|-----|--10---------------
------|---------0h2h3-----------------------|-----|-------------------
------|--0h2h3------------------------------|-----|-------------------
h1h4--|-------------------------------------|-----|-------------------





                                    


h   q     q^  q^  q^  h   q     q^  q^  q^  h   e     q^  q^  q^


                                                                           


----r--|--12--12--12------r--|--19--19--19--19--r--|--12--12--12------
12--e--|--------------12--e--|------------------e--|------------------
----s--|--10--------------s--|--17----------17--s--|--10--------------
----t--|------------------t--|------------------t--|------------------
-------|---------------------|---------------------|------------------
-------|---------------------|---------------------|------------------





                                    


h   e     q^ q^ q^ h  e     w


                                                                           


12--r--|--7--7--7--7--r--|-----||-------------------------------------
10--e--|--------------e--|-----||-------------------------------------
----s--|--5--------5--s--|-----||-------------------------------------
----t--|--------------t--|-----||-------------------------------------
-------|-----------------|--2--||-------------------------------------
-------|-----------------|-----||-------------------------------------



Important: The song above is NOT stored on the Chordie server. The original song is hosted at www.geocities.com. Chordie works as a search engine and provides on-the-fly formatting. Chordie does not index songs against artists'/composers' will. To remove this song please click here.

This song is displayed as text-only. Transposing and tuning is only available for chordpro-songs.

Login - add to songbook

Rating click stars to rate

Layout
Accuracy

SHARE PAGE  




You need to log in to post comments