Guitar Tabs, Chords and Lyrics


Star Spangled Banner   America



e: --0------0-5—9-7-5--------------9-7-5—4-2-4-5-5------------------------|
B: ---2---2--------------2-4-5---5-------------------------5-2------------|
G: -----2-----------------------------------------------------------2-----|
D: -----------------------------------------------------------------------|
A: -----------------------------------------------------------------------|
E: -----------------------------------------------------------------------|

e: ---9-9-9-10-12-12—10-9-7-9-10-10---9-7-5-4-2-4-5-5-----------------------|
B: ----------------------------------------------------5-2------------------|
G: ---------------------------------------------------------------2---------|
D: -------------------------------------------------------------------------|
A: -------------------------------------------------------------------------|
E: -------------------------------------------------------------------------|

e: -----------------------------8-7----------------|
B: ------8-8-8-7---------10-------10-8-8-7---------|
G: ---7------------9-9-9---------------------------|
D: ------------------------------------------------|
A: ------------------------------------------------|
E: ------------------------------------------------|

e: ---------------7-8-10--------7-8-------------|
B: ---------8-10----------8-10------10-8--------|
G: ---7-7---------------------------------------|
D: ---------------------------------------------|
A: ---------------------------------------------|


Important: The song above is NOT stored on the Chordie server. The original song is hosted at www.guitaretab.com. Chordie works as a search engine and provides on-the-fly formatting. Chordie does not index songs against artists'/composers' will. To remove this song please click here.

This song is displayed as text-only. Transposing and tuning is only available for chordpro-songs.

Login - add to songbook

Rating click stars to rate

Layout
Accuracy

SHARE PAGE  




You need to log in to post comments