Guitar Tabs, Chords and Lyrics


Adrenaline  Bush

E--15------12----------------------15------12-------------------------------|


B--------------------12-------------------------------12--------------------|


G---------------------------------------------------------------------------|

D---------------------------------------------------------------------------|
A---------------------------------------------------------------------------|
E---------------------------------------------------------------------------|
too much is n[A]ot enough, nobody said this stuff, makes any sense, we're hooked again
the point of no return, [A]see how the buildings burn, light up the night, such a pretty sight
E--------------------------------------------|
B--------------------------------------------|
G------------------0---------------0---------|
D------------2---------------2---------------|
A------3---------------3---------------------|
E--------------------------------------------|


[C]adrenaline, keeps m[A]e in the game        [Em]
[C]adrenaline, you don[A]'t even feel the pain    [Em]
[C]wilder than your wildes[A]t dreams           [G]
when you're going to e[D]xtremes (going to extremes)

it seeks adrenaline (adrenaline adrenaline adrenaline, you don't feel the pain...)

E-------------------------------------------------------------------|
B-------------------------------------------------------------------|
G-------------------------------------------------------------------|
D--12----12----12----12----12----12----12----12---------------------|
A--10----10----10----10----10----10----10----10---------------------|
E-------------------------------------------------------------------|


se[A]lf you in one tonight, it's only you and I, who understand, there is no plan
[Em]get closer to the thrill, only time[G] can kill, it's in you eyes, it's so[C] alive                     [D]

E--------------------------------------------|
B--------------------------------------------|
G------------------0---------------0---------|
D------------2---------------2---------------|
A------3---------------3---------------------|
E--------------------------------------------|


[C]adrenaline, keeps m[A]e in the game        [Em]
[C]adrenaline, you don[A]'t even feel the pain    [Em]
[C]wilder than your wildest[A] dreams            [G]
when you're going to [D]extremes (going to extremes)

it takes adrenaline

[F]running through the speed of sound, every thing slows you down    [G]
[A]all the colors that surround (colors that surround), all bleed into one (all bleed into one)
[F]only thing you really need, just a way to find y[G]ou speed
[D]and then you will achieve, escape velocity

to much is not enough, nobody[A] gave it up, i'm not the kind, to lay down and die


[C]adrenaline, scream[A]ing out your name                   [Em]
[C]adrenaline, you don[A]'t even feel the pain                    [Em]
[C]wilder than your wildest drea[A]ms             [G]
when you're going to extr[D]emes (going to extremes)

you taste adrenaline (adrenaline....)

you don't even feel pain, you don't even feel pain
cause i'm going to extremes, there's nothing inbetween (this is where i want to be)
you don't even feel pain,(aaahhh) you don't even feel pain, i'm going to extremes
(always in the pain, and i'm going to extremes, there's nothing inbetween,
there's nothing inbetween, and i'm going to extremes,
and i'm going to extremes, there's nothing inbetween,)
you don't even feel pain, feel pain, feel pain, feel pain...

Important: The song above is NOT stored on the Chordie server. The original song is hosted at www.guitaretab.com. Chordie works as a search engine and provides on-the-fly formatting. Chordie does not index songs against artists'/composers' will. To remove this song please click here.

Text color:
Chord color:
Chord grids: 
Font size:    
Page size: 

A C D Em F G
variations - click chord images

Login - add to songbook

Transpose chords

Tuning

Rating click stars to rate

Layout
Accuracy

SHARE PAGE  




You need to log in to post comments