Guitar Tabs, Chords and Lyrics


If I Could Give All My Love To You  Counting Crows

E-|--------12----------------------------------------------------|


B-|-12/14-----14-12------10/12--14-12---------------10-10/12-10--|


G-|-----------------14----------------14-12---9/11---------------|

D-|--------------------------------------------------------------|
A-|--------------------------------------------------------------|
E-|--------------------------------------------------------------|
E-|--------12----------------------------------------------------|
B-|-12/14-----14-12------10/12--14-12---------------10-13-12-10--|
G-|-----------------14----------------14-12---9/11---------------|
D-|--------------------------------------------------------------|
A-|--------------------------------------------------------------|
E-|--------------------------------------------------------------|
[Bm]  Got a message in my [D]head
that the papers had all come   [A]
Richard Manuel is dead[Bm]
and the daylight's comin' on    [D]
I've been wandering through the dark    [A]
now I'm standing on the lawn  [Bm]      [B]    [C#]     [D]
Chorus:
If I could give a[A]ll my l[Bm]ove to [D]you
I could justify my[A]self
but I'm [G]just not coming t[D]hrough
You're a pill to ease the p[A]ain
of all the st[G]upid things I [D]do
I'm an anchor[C#] on the [Bm]line
of a clock that tells the [G]time
A G D (play first 1/2 of intro riff over A
[G]th[D]at is running out on you


Verse 2:
[Bm]  It was cold when I a[D]woke
and the day was halfway [A]done
Nearly spring in San Fran[Bm]cisco
and I cannot feel the [D]sun
You were sleeping next to [A]me
but I knew that you'd be [Bm]gone [B]    [C#]     [D]


Repeat Chorus


Lead-in to solo:
E-|------------------------------|
B-|------------------------------|
G-|------------------------------|
D-|------------------------------|
A-|------------------------------|
E-|----4~--5------4~--5-4-5-6~---|7


Solo chords: (key of A, I think)
[Bm]   [D]  [A]  [G]  [D]                            

Verse 3:
[Bm]  Take some time before you [D]go
To think of Mondays coming [A]down
and the people that you [E]knew
and the ones that aren't ar[Bm]ound
You've been fading day to [D]day
I've been moving town to t[Bm]own   [D]

Repeat Chorus twice
(skip the intro riff between these repeats)
End with a variation on Riff 1 (it's a really easy variation)


Tabbed by Neil (oxtoby@physics.uq.edu.au) on Thursday 11 July 2002.

Important: The song above is NOT stored on the Chordie server. The original song is hosted at www.guitaretab.com. Chordie works as a search engine and provides on-the-fly formatting. Chordie does not index songs against artists'/composers' will. To remove this song please click here.

Text color:
Chord color:
Chord grids: 
Font size:    
Page size: 

A B Bm C# D E G
variations - click chord images

Login - add to songbook

Transpose chords

Tuning

Rating click stars to rate

Layout
Accuracy

SHARE PAGE  




You need to log in to post comments