Chordie logo


Magic Fingers   Frank Zappa



---------------------------------------------------------------------------
                       Magic Fingers - Frank Zappa
                                   From:
                               "200 Motels"
----------------------------------------------------------------------------
Tabbed by: Kennezar (Kenneth Dale Harris IV)
Email: kenny4@kdharris.net

Tuning: Standard 
Opening Riff: very fast
e|------------------------------------------------------|
B|------------------------------------------------------|
G|-7-5-----5--------------------------------------------|
D|-----7-5---7-5---7-5-----5----------------------------|
A|---------------7-----7-5---7-5---7-5-----5------------|
E|-------------------------------8-----8-5---8-5-0-3-5~-|
Ooh, the way you love me, lady, I get so hard now I could die.
e|-------------------------|
B|----5~-------5~----7~----|
G|----5~-------5~----7~----|
D|----7~-------5~----7~----|
A|----7~-------------------|
E|-5-----------------------|
Ooh, the way you love me, sugar, I get so hard now I could die. 
e|------------------------------------------------------|
B|------------------------------------------------------|
G|-7-5-----5--------------------------------------------|
D|-----7-5---7-5---7-5-----5----------------------------|
A|---------------7-----7-5---7-5---7-5-----5------------|
E|-------------------------------8-----8-5---8-5-0-3-5~-|
Open up your pocketbook, get another quarter out,
drop it in the meter, mama and try me on for size.  (very fast)
e|----------------------------------------------------------------|
B|----------------------------------------------------------------|
G|----------2-----------------------------------------------------|
D|--------2--5-2--5-2-----------------------------5-2-------------|
A|----3-5-------------5-3-5-3----3-5-5-3-5-5-3-5------5-3--5p3----|
E|--5-------------------------5--------------------------------5~-|
That's about the whole song, besides the solo which I won't get into.
The solo is in the key of "A" and is just another extemporaneous
free-going solo, by Frank Zappa.


| /  slide up
| \  slide down
| h  hammer-on
| p  pull-off
| ~  vibrato
| +  harmonic
| x  Mute note
============================================================================


Important: The song above is NOT stored on the Chordie server. The original song is hosted at www.guitaretab.com. Chordie works as a search engine and provides on-the-fly formatting. Chordie does not index songs against artists/composers will. To remove this song please click here.

This song is displayed as text-only. Transposing and tuning is only available for chordpro-songs.

Login - add to songbook

Rating click stars to rate

Layout
Accuracy

SHARE PAGE  




You need to log in to post comments