Hobos Lullaby

Emmylou Harris


 DDGG
 Go to sleep.....  
 AADD
 Let .....  
 DDGG
 Can't ......  
 AADD
 That's a hobo's lullaby 
Verse
Chorus
(fiddle solo)
Verse
Chorus
===========================================================
This is the melody for the lyrics. Chorus and verses have
the same tune:
 DG
e|--------0--2------2---3--2------------------|
G|-----3----------------------3-0-------------|
B|--------------------------------------------|
D|--------------------------------------------|
A|--------------------------------------------|
E|--------------------------------------------|

 1234123412341234
       Go to sleep, ....          
 AD
e|--------------------------0--2---------------|
G|-2-----0---2-----2----3----------------------|
B|---------------------------------------------|
D|---------------------------------------------|
A|---------------------------------------------|
E|---------------------------------------------|

 1234123412341234
   Le  .....           
 DG
e|-----------0---2----2---3-----2-------------------------|
G|-----3------------------------------3---2---------------|
B|--------------------------------------------------------|
D|--------------------------------------------------------|
A|--------------------------------------------------------|
E|--------------------------------------------------------|

 1234123412341234
       Can't ......           
 AD
e|--------------------3----2----0-----------------|
G|-2-----------0------------------3---------------|
B|-----------------2------------------------------|
D|------------------------------------------------|
A|------------------------------------------------|
E|------------------------------------------------|

 1234123412341234
   That's      a   ho-bo's lull-a-by       
Chord Formations:
 DGA
e|-2-3-0-|
G|-3-0-2-|
B|-2-0-2-|
D|-0-0-2-|
A|---2---|
E|---3---|

Tabbed by Chris Howell
Comments and corrections can be mailed to
cwhowell@student.umass.edu
Submitted November, 1999


A D G
variations - click chord images
Transpose chords:
Tuning:
Cool service:
View: Size:
A  A  A
Rating:
Layout:
  • Currently 4/5 Stars.
  • 1
  • 2
  • 3
  • 4
  • 5
 
Accuracy:
  • Currently 3/5 Stars.
  • 1
  • 2
  • 3
  • 4
  • 5
 
click stars to rate
Chordie recommends:
Check out JamPlay.com for online video guitar lessons
Songbook:
Login to add this song to your songbook
Support the artist
Preview/buy this song
MSN Music
Why this non-profit ad?

 
login to add comments/video/corrections