Chordie logo

Rain Song   Led Zeppelin



This is the TSRTS version on The Rain Song. Play it on light distrotion, and it will sound awesome.
Here it is:

e---0------------0---------------
B--10------10----9------9--------
G---9-----9--9---9-----9-9-------
D---7---7--------7---7-----7-----
A---0-0----------0-0---------0--0
E--------------------------------

e-----------------------
B----8-8-6-5-6-6-6-6----
G----6-6-----5-5-5-5----
D----5-5-3-2-3-3-3-3----
A--0-----------------0-0
E-----------------------
Play twice:
e--0--0--0--0--------
B-14-12-15-14-7-12-12
G-------------6-10-10
D-11--9-12--9-4--9--9
A-------------0--0--0
E--------------------

e-8/7-7-7-7-7-7-7-7-7-7-7
B-9/8-8-8-8-8-8-8-8-8-8-8
G-7/6-6-6-6-6-6-5-5-5-5-5
D------------------------
A------------------------
E------------------------

e-5-5-5-5-5-5-5-5-5-5
B-3-3-3-3-3-3-3-3-3-3
G--------------------
D-5-4-0-0-4-5-4-0-4-5
A--------------------
E--------------------

e-8/7-7-7-7-7-7-7-7-7-7-7-7
B-9/8-8-8-8-8-8-8-8-8-8-8-8
G-7/6-6-6-6-6-6-5-5-5-5-5-5
D--------------------------
A--------------------------
E--------------------------

e-5-5-5-5-5-5-5-5-5-5
B-3-3-3-3-3-3-3-3-3-3
G--------------------
D-5-4-0-0-4-5-4-0-4-5
A--------------------
E--------------------
Repeat w/ change to D progressing up to 4...
e------------------
B-0-2-2-0h2--------
G-2-2-2-----2h4--2-
D-2-2-2--------4--2
A------------------
E------------------

e--------------
B--------------
G-2-2-2-4------
D-2-2-2-2------
A--------------
E--------------
Outro:
e-6/7-6/7-6/7-----4/5----5-3-3-3-2h3p2-0-
B-7/8-7/8-7/8-8-7-5/6-8-8--5-5-5---------
G-6/7-6/7-6/7-----4/5--7---4-4-4---------
D----------------------------------------
A----------------------------------------
E----------------------------------------

e-2-2-0-3-5-5-3-6-8-6-8-10s1--------1---1---1
B-3-3-3-5-6-6-6-8-9-9-9-----------2---3---2--
G-2-2-2-4-5-5-5-7-8-8-9---------0------------
D--------------------------------------------
A--------------------------------------------
E-----------------------------3--------------


e------1---1---1---5p3-----3---------3p1-0---0
B----2---3---2---------7-3---5p3-----------1--
G--0-----------------------------5------------
D----------------------------------5----------
A---------------------------------------------
E-3-------------------------------------------

e-1-0--------1-------0-------------------------
B-----1--------3-------3------3-3-3--3-3------3
G----------0-------0---------0-----0---------2-
D-------------------------------------------0--
A--------3-------2----------0--------------5---
E-----------------------------------------3----
      FADE


Important: The song above is NOT stored on the Chordie server. The original song is hosted at www.guitaretab.com. Chordie works as a search engine and provides on-the-fly formatting. Chordie does not index songs against artists/composers will. To remove this song please click here.

This song is displayed as text-only. Transposing and tuning is only available for chordpro-songs.

Login - add to songbook

Rating click stars to rate

Layout
Accuracy

SHARE PAGE  

You need to log in to post comments