Hey Hey What Can I Do

Led Zeppelin

INTRO
guitar 1
E|----------------
B|----------0(0)--
G|----------0(0)--  strum G then repeat a
D|------0h2-------  couple times and end
A|--1h2-----------  with F# F# E F
E|---------------- 

guitar 2
E|--------10-12-15--|--------10-12-15--|--14-14-12/13--
B|--11-12-----------|--11-12-----------|---------------
G|------------------|------------------|---------------
D|------------------|------------------|---------------
A|------------------|------------------|---------------
E|------------------|------------------|---------------

VERSE 1
 GDFC
  Wanna tell you 'bout the girl I love
C (I throw in C7 to make it fuller)
My she looks so fine
 GDFC
  She's the only one that I been dreamin' of
 C
 Maybe someday she will be all mine - (insert riff A)
 GDFC
  I wanna tell her that I love her so
 C
 I thrill with her every touch
G" D" F" C(C)
I need to tell her she's the only one I really love
(CHORUS)
 GGFCCC
           I got a woman, wanna ball all day
 GGFCCC
           I got a woman, she won't be true, no
 GGFCCC
           I got a woman, stay drunk all the time
 GGFCCC
          I said I got a little woman and she won't be true
VERSE 2
 GDFC
  Sunday morning when we go down to church
 C
 See the menfolk standin' in line
 GDFC
  I said they come to pray to the Lord
 C
 With my little girl, looks so fine - (insert riff A)
 GDFC
  In the evening when the sun is sinkin' low 
 C
 Everybody's with the one they love
G" D" F" C(C)
I walk the town Keep a-searchin' all around
Lookin' for my street corner girl
(CHORUS)
VERSE 3
 GDFC
  In the bars, with the men who play guitars
 C
 Singin', drinkin' and rememberin' the times
 GDFC
  My little lover does a midnight shift
 C
 She followed around all the time - (insert riff A)
 GDFC
  I guess there's just one thing a-left for me to do
 C
 Gonna pack my bags and move on my way
G" D" F" C(C)
Cause I got a worried mind Sharin' what I thought was mine
Gonna leave her when the guitars play
(CHORUS)
OUTRO
 GGFCCC
(hey hey what can do) - back up singers
 C
 I said she won't be true
 GGFCCC
  (Hey Hey, What can say?)
they continue like this with plant doin some
improv and then they go to this:
 GGFCCC
 Hey hey, what can do
 C
 I got a woman, she won't be true
RIFF
Lo-o-ord, hear what I say
 C
   RIFF A
E|----------------------
B|----------------------
G|----------------------
D|------0-2b^p0---------
A|--1-2---------1-------
E|----------------3-----

for each verse and the chorus there is a second guitar part, now your'e gonna have to listen to the song to get the rhythm but iv'e tabbed
the notes for the verses for you (i just improvise on the chorus and the end):
E|--14-12-12-14--|--12--------------|--------14-12-12--|-----------------
B|---------------|-----14-12--------|------------------|-----------------
G|---------------|-----------14-12--|--11-9------------|-----------------
D|---------------|------------------|------------------|------0 2--0-----
A|---------------|------------------|------------------|--1-2--------1b--
E|---------------|------------------|------------------|----------------3


C D F G
variations - click chord images
Transpose chords:
Tuning:
Cool service:
View: Size:
A  A  A
Rating:
Layout:
  • Currently 3/5 Stars.
  • 1
  • 2
  • 3
  • 4
  • 5
 
Accuracy:
  • Currently 2.8/5 Stars.
  • 1
  • 2
  • 3
  • 4
  • 5
 
click stars to rate
Chordie recommends:
Learn to play songs at Jamplay.com with video guitar lessons
Songbook:
Login to add this song to your songbook
Support the artist
Preview/buy this song
MSN Music
Why this non-profit ad?

 
login to add comments/video/corrections