Guitar Tabs, Chords and Lyrics


Workhorse   Mastodon



Band:  Mastodon
Song:  Workhorse
Album: Remission

Tabbed On 8/6/06

By: Brandon Yates
E-Mail: BYates04@yahoo.com

Tuning - A G C F A D
_____________
Key:         |
-------------|
/  slide up  |
\  slide down|
h  hammer-on |
p  pull-off  |
~  vibrato   |
+  harmonic  |
x  Mute note |
_____________|


Intro:
|---------------------------------|
|---------------------------------|
|------9------------5------5------| 
|-7-10-7-10--7--2-2-3--7-2-3--8-7-|
|-5--8----8--5--0-0----5-0----6-5-|
|---------------------------------|

|-----------------------------------|
|-----------------------------------|
|------9------------5-5-----5-------| 2x
|-7-10-7-10--7--2-2-3-3-7-2-3--8-7--|
|-5--8----8--5--0-0-----5-0----6-5b-|
|-----------------------------------|

On 2 & 4 hold out and bend the last note.

|-------12---------8------8-------|
|-10-13----13-10-----10-----11-10-|
|----------------9------9---------| 
|---------------------------------|
|---------------------------------|
|---------------------------------|

|-------12---------8------8--------|
|-10-13----13-10-----10-----11-10b-|
|----------------9------9----------| 2x
|----------------------------------|
|----------------------------------|
|----------------------------------|


Verse:
|---------------------------------|
|---------------------------------|
|-------------555-----555---------|
|-444-777-555-333--55-333-555-4-4-| X4
|-222-555-333------33-----333-2-2-|
|---------------------------------|


Chorus:
(The 5+ means to play harmonics at the fifth fret. These are played
rather quickly)

|---------------------------------------------------------|
|--------------------5+5+5+5+5+5+-------5+5+5+------------|
|-------5-4--------------------------------------------5--|
|-4-2-4-3-2-7-4-2-4--5+5+5+5+5+5+-4-2-4-5+5+5+-4-2-4-5-3--|
|-2-0-2-----5-2-0-2---------------2-0-2--------2-0-2-3----|
|---------------------------------------------------------|


Interlude:
|---|------------------------------------------|
|---|------------------------------------------|
|-4-|-4-5-4-7----4-5-4-7----4-5-4-7----5-7-5-4-|
|-x-|-x-x-x-x----x-x-x-x----x-x-x-x----x-x-x-x-|
|-2-|-2-3-2-5----2-3-2-5----2-3-2-5----3-5-3-2-|
|---|---------xx---------xx---------xx---------|

A second guitar can play this harmony
|---|---------------------------------------------------|
|---|---------------------------------------------------|
|---|---------------------------------------------------|
|-9-|-9-10-9-12----9-10-9-12----9-10-9-12----10-12-10-9-|
|---|---------------------------------------------------|
|---|---------------------------------------------------|


Outro:
|-------------------------------|
|-------------------------------|
|------9----------5------5------|
|-7-10-7-10--7--2-3--7-2-3--8-7-|
|-5--8----8--5--0----5-0----6-5-|
|-------------------------------|



This tab is probably 95% correct.  There are a few more guitar harmonys here and there, 
but this is enough for you to actually play it, and play it well.  
Hope you enjoy! - Brandon (UG Forum: ThisFireBurns22)



Important: The song above is NOT stored on the Chordie server. The original song is hosted at www.guitaretab.com. Chordie works as a search engine and provides on-the-fly formatting. Chordie does not index songs against artists/composers will. To remove this song please click here.

This song is displayed as text-only. Transposing and tuning is only available for chordpro-songs.

Login - add to songbook

Rating click stars to rate

Layout
Accuracy

SHARE PAGE  




You need to log in to post comments