"yes"; ?> Medley by McFly - guitar chords, guitar tabs and lyrics - chordie

Medley

McFly

 G7C
 Do do dodo do, do
 G7C
 Do do dodo do, do
 G7CD
 Do do dodo do, do

 G
 Went out with the guys
 Cadd9
 And before my eyes
 G
 There was this girl
 D
She looked so fine
 G
 And she blew my mind
 Cadd9
 And I wished that she was mine
 GDCadd9
 And I said "Hey wait up 'cuase im off to speak to her"

And my friends said

 GEmCadd9D
 Everybody wants to know her na ---- me,
 GEmCadd9D
 I threw a house party and she ca ---- e,
 Cadd9D
 Everyone  asked  me,
 BmEm
 Who the hell is  she?
 CDG
That weirdo  with  5  colours  in  her  hair.

E, E7

 AE
 Na na na na na na na naaaaaaa
 AFB
 Na na na na na na na naaaaaaa
No nooo
 A
 I guess at times like these remind me (at times like these remind me)
 F
 I guess at times like these remind me (at times like these remind me)
 A
 I guess at times like these remind me
 AmE
That I've got to keep my feet on the ground

Then you play this...
e|-------------------|
B|-------------------|
G|--10---12----------|
D|--10---12----------|
A|--8----10----------|
E|-------------------|


 CCadd9CCadd9
Recently I've been, hopelessly reaching
 GFCCadd9CCadd9
out for this girl, who's out of this world, believe me.                  

 FC
For so many nights now,
 FCDmG
 I find myself thinkin' about her now!                   

 CE
'Cause obviously, she's out of my league,
 FD
I'm wastin' my time 'Cause she'll never be mine
 FGCE
and I know I never will be good enough for her. no, no                    
 FFmCCadd9E
never will be good enough for her                                      

 EAmGF
She was all I thought about    The girl I couldn't live without
 FmGEmCD
But then she went insane, she couldn't take the fame      
 GEmCDCDB
 She said I was to blame, she had had enough, and shaved 5 colours
Em D Cadd9 Cm <- just rises up
off and now She's just a weirdo with no name

Solo during bridge:
e|-----------------------------------------------------------------------------|
B|-----7-8-11-8-7-8-11-8-7-5-----------------7-8-11-8-7-8-11-8-7—7\5-5-----5h7-|
G|-5/7-----------------------7---------7-------------------------------7-8-----|
D|-----------------------------7-5-7/9-----------------------------------------|
A|-----------------------------------------------------------------------------|
E|-----------------------------------------------------------------------------|

Cm ……… then sound rises up
e|-------------3-----------------------|
B|--8-7-5------6-----------------------|
G|-------------5-----------------------|
D|-------------5-----------------------|
A|-------------3-----------------------|
E|-------------------------------------|


 G
And my friends said (Such a pity etc...)
 Cadd9
I let her slip away
 G
They tell me every day
 D
That it will be OK
 G
She rocks my world
 Cadd9
More than any other girl
 GDCadd9
 Dude it's such a pity and I'm sorry that you lost that girl
 DG
And I'm sorry that you lost that girl.

A Am B Bm C Cadd9 D Dm E Em F Fm G G7
variations - click chord images
Transpose chords:
Tuning:
Cool service:
View: Size:
A  A  A
Rating:
Layout:
  • Currently 2.9/5 Stars.
  • 1
  • 2
  • 3
  • 4
  • 5
 
Accuracy:
  • Currently 2.8/5 Stars.
  • 1
  • 2
  • 3
  • 4
  • 5
 
click stars to rate
Chordie recommends:
Learn to play songs at Jamplay.com with video guitar lessons
Songbook:
Login to add this song to your songbook
Support the artist
Preview/buy this song
MSN Music
Why this non-profit ad?

 
login to add comments/video/corrections