Guitar Tabs, Chords and Lyrics


Dead Dressed   Melvins



Artist - Melvins
Song - Dead Dressed
Album - Ozma/Gluey Porch Treatments
Tabbed by an18nin18

Drop D Tuning - D, A, D, G, B, E

Intro

|----------------------------------------------------------------------------|
|----------------------------------------------------------------------------|
|----------------------------------------------------------------------------|
|----------------------------------------------------------------------------|
|-11-11-12--11---11---11-11----11-11-12--11---11---11-11-0-3^-12-|
|-11-11-12--11---11---11-11----11-11-12--11---11---11-11-0-3^-12-|

Verse

|----------------------------------------------------------------------------------|
|----------------------------------------------------------------------------------|
|----------------------------------------------------------------------------------|
|----------------------------------------------------------------------------------|
|-11-11-11-11-11-11-11-11-11-11-11-11-11-11-11-11-11-11-11-11-11-11-11-11-11-11-12-|
|-11-11-11-11-11-11-11-11-11-11-11-11-11-11-11-11-11-11-11-11-11-11-11-11-11-11-12-|
     PM...............    PM.........    PM......    PM.........    PM.........
  Play x 4

|------------|
|------------|
|------------|
|------------|
|-11-0-11-11-|
|-11-0-11-11-|

Chorus

|-----------------------------------------------------------------|
|-----------------------------------------------------------------|
|-----------------------------------------------------------------|
|-----------------------------------------------------------------|
|-0-0-0-1-1-1-4-4-4-3-3-3-0-11-0-13-11-11-11-11-11-11-10-10-10-10-|
|-0-0-0-1-1-1-4-4-4-3-3-3-0-11-0-13-11-11-11-11-11-11-10-10-10-10-|
  Play x 4

Post Chorus
                                                 1|                                2|
|------------------------------------------|------|---------------------------------|
|------------------------------------------|------|---------------------------------|
|------------------------------------------|------|---------------------------------|
|------------------------------------------|------|---------------------------------|
|-2-2-2-2-2-3~~-2-2-2-2-2-3-4-3-2-2-11-0-0-|-11~~-|-12-12-12-12-12-12-0-0-12-0-0-12-|
|-2-2-2-2-2-3~~-2-2-2-2-2-3-4-3-2-2-11-0-0-|-11~~-|-12-12-12-12-12-12-0-0-12-0-0-12-|
  PM.......     PM.......

|----------------------------------------------------------------------------------|
|----------------------------------------------------------------------------------|
|----------------------------------------------------------------------------------|
|----------------------------------------------------------------------------------|
|-11-11-11-11-11-11-11-11-11-11-11-11-11-11-11-11-11-11-11-11-11-11-11-11-11-11-12-|
|-11-11-11-11-11-11-11-11-11-11-11-11-11-11-11-11-11-11-11-11-11-11-11-11-11-11-12-|
     PM...............    PM.........    PM......    PM.........    PM.........
  Play x 4

|------------|
|------------|
|------------|
|------------|
|-11-0-11-11-|
|-11-0-11-11-|

Outro

|-----------------------------------------------------|
|-----------------------------------------------------|
|-----------------------------------------------------|
|-----------------------------------------------------|
|-0-0-0-1-1-1-4-4-4-3-3-3-2-2-2-2-3---11-11-12-~~-|


Important: The song above is NOT stored on the Chordie server. The original song is hosted at www.guitaretab.com. Chordie works as a search engine and provides on-the-fly formatting. Chordie does not index songs against artists'/composers' will. To remove this song please click here.

This song is displayed as text-only. Transposing and tuning is only available for chordpro-songs.

Login - add to songbook

Rating click stars to rate

Layout
Accuracy

SHARE PAGE  




You need to log in to post comments