eToCache5 = ""; ?> I Saw Three Ships by Misc. Traditional - guitar chords, guitar tabs and lyrics - chordie

I Saw Three Ships

Misc. Traditional

--------------------------------------------------------------


 CG7CG7C
E:--------:-----0--:3-0--1--:0----0--:--------:-----0--:
B:--------:1-13----:1--3----:--11----:3-0-----:1-13----:
G:-------0:--------:--------:--------:--------:--------:
D:--------:--------:--------:--------:---0-0--:--------:
A:--------:3-3-3-3-:--------:3-3-3-3-:--------:3-3-3-3-:
E:--------:--------:3-3-3-3-:--------:3-3-3-3-:--------:

12345678 12345678 12345678 12345678 12345678 12345678

B CLASSICAL 6/8

 G7CFG7CCG7C
E:3-0--1--:0-----0-:--------:------:-----0:3-0--1:0----0:
B:1--3----:--1-13--:3---1---:------:1-13--:1--3--:--11--:
G:--------:--------:--------:-----0:------:---0--:------:
D:--------:--------:--------:------:2--0--:------:------:
A:--------:3-3-----:--023---:------:------:------:3--0--:
E:3-3-3-3-:----1-1-:3-------:------:------:------:------:

12345678 12345678 12345678 123456 123456 123456 123456

THUMBSTYLE 4/4

 CG7
E:------:-----0:3-0--1:0----0:-----0:------:-----0--:3-0--1--:
B:3-0---:1-13--:1--3--:--113-:3--1--:------:1-13----:1--3----:
G:------:---0--:---0--:------:------:-----0:--------:--------:
D:---0-0:2-----:------:---0--:------:------:--------:--------:
A:0-----:------:------:3-----:---3--:------:3-3-3-3-:--------:
E:------:------:------:------:3-----:------:--------:3-3-3-3-:

123456 123456 123456 123456 123456 12345612345678 12345678

 CG7CG7CFG7C
E:0----0--:--------:-----0--:3-0--1--:0-----0-:--------:
B:--11----:3-0-----:1-13----:1--3----:--1-13--:3---1---:
G:--------:--------:--------:--------:--------:--------:
D:--------:---0-0--:--------:--------:--------:--------:
A:3-3-3-3-:--------:3-3-3-3-:--------:3-3-----:--023---:
E:--------:3-3-3-3-:--------:3-3-3-3-:----1-1-:3-------:

12345678 12345678 12345678 12345678 12345678 12345678





















C F G7
variations - click chord images
Transpose chords:
Tuning:
Cool service:
View: Size:
A  A  A
Rating:
Layout:
  • Currently 2.9/5 Stars.
  • 1
  • 2
  • 3
  • 4
  • 5
 
Accuracy:
  • Currently 3.2/5 Stars.
  • 1
  • 2
  • 3
  • 4
  • 5
 
click stars to rate
Chordie recommends:
Learn to play guitar with video-based, online guitar lessons at JamPlay.com
Songbook:
Login to add this song to your songbook
Support the artist
Preview/buy this song
MSN Music
Why this non-profit ad?

 
login to add comments/video/corrections