Guitar Tabs, Chords and Lyrics


Whatever  Oasis

[G2]Dsus4/F# [355433](2x0233)  (some might say this chord is played  2x0033)
E (022100)
Em7 (022033)
Dsus4 (xx0233)
Cadd9 (x32033)
A7sus4 (x02033)
[A2]B5       [577655](x244xx)
[F#]         [244322]         (ANOTHER NOTE: The chords in this song are played by an acoustic guitar,
which is accompanied by an electric that plays the guitar fills, the solo,
and parts of the bridge)
GUITAR FILL #1
h = hammer on
e-------------------------
B-------------------------
G-------------------------

D-12h14-12h14-12h14-12h14-
A-------------------------
E-------------------------

GUITAR FILL #2 GUITAR FILL #2b
e----------------------------	e----------------------
B----------------------------	B----------------------
G-------12-------12-------12-	G--------12---------12-
D-12h14----12h14----12h14----	D--12h14------12h14----
A----------------------------	A----------------------
E----------------------------   E----------------------

GUITAR FILL #3 GUITAR FILL #3b
e-----------------   e--------------------
B-----------------   B--------------------
G--------12h14----   G--------12h14-------
D--12h14-------14-   D--12h14-------12h14-
A-----------------   A--------------------
E-----------------   E--------------------

Intro
[-----]G1  Dsus4/F#  Em7  Dsus4  Cadd9  Dsus4  G1  Dsus4  (play twice)
(GUITAR FILL #1)
Verse 1
-------

I'm [G1]free[Dsus4/F#]eee  to be whate[Em7]ver I ([Dsus4]GUITAR FILL #2)
what[Cadd9]ever I choose an' [Dsus4]I'll sing the blues if [G1]I want (G[Dsus4]UITAR FILL #1)
I'm [G1]freee[Dsus4/F#]ee  to say what[Em7]ever I ([Dsus4]GUITAR FILL #2)
what[Cadd9]ever I like if [Dsus4]it's wrong or right it's a[G1]lright [Dsus4]
Chorus
------

(GUITAR FILL #[Em7]3) It always seems to [A7sus4]me (FILL #2b)
Cadd9 G1 (quickly:G1 Dsus4/F#)
you only see what people want you to see
(FILL #3b)[Em7]   How long's it gonna [A7sus4]be
before we [Cadd9]get on the bus an' cause no fuss
get a [Dsus4]grip on yourself it don't cost much
Verse 2
-------

(chords are the same as in verse 1)
You're free to be whatever you
whatever you say if it comes my way it's alright
You're free, to be whatever you
wherever you please you can shoot the breeze if you want
Chorus
------

(same chords as previous chorus)
It always seems to me
You always see what people want you to see
How long's it gonna be
before we get on the bus an' cause no fuss
get a grip on yourself it don't cost much
[G1]Freee[Dsus4/F#]eee  to be what[Em7]ever I[Dsus4]
what[Cadd9]ever I choose an' [Dsus4]I'll sing the blues if[G1] I want[Dsus4]
Solo
[----]        G    [Dsus4/F#]  l    Em7   Dsus4  Cadd9 Dsus4 G      Dsus4
e---------------------------------------------------
B--13-13--12---10-10--8--7--8----10-8-7-8--8-7------
G--14-14--12---11-11--9--7--7-----7-7-7-7------7----
D-------------------------------------------------0-
A---------------------------------------------------
E---------------------------------------------------

Bridge
------

[B5]    Here in my m[G2]ind
[B5]    you know you might f[G2]ind
[B5]    something that y[G2]ou
[B5]    thought you once [F#]knew, but now it's all go[E]ne
[E]an' [G2]now it's [A2]no f[E]un
[E]yeah [G2]now it's [A2]all g[E]one
E G2 A2 E (E and a whole lot of background noise!)
oh now it's no fun
(chords the same as verses here, play 'em right until the end)
I'm free to be whatever I
whatever I choose an' I'll sing the blues if I want
I'm free to be whatever I
whatever I choose an' I'll sing the blues if I want
whatever you do, whatever you say
yeah I know it's alright
whatever you do, whatever you say
yeh I know it's alright
End Solo
--------

b = bend (8b9 means bend string at 8th fret to make note string would make
if played at the 9th string with no bend)
r = release bend
                      [G]           [Dsus4/F#]          [Em7]         [Dsus4]       [Cadd9]           [Dsus4]            [G]    
e--------------------------------------------------------------------------
B--------------------------------------------------------------------------
G-------12--14b16-14b16-14-12-14-14b16r14-12----------14-12-14b16r14-12-12-
D-12h14--------------------------------------14----------------------------
A--------------------------------------------------------------------------
E--------------------------------------------------------------------------

(to continue solo, use slight variations of the above part of the solo)
Questions, comments, corrections, requests to swede@email.unc.edu

Important: The song above is NOT stored on the Chordie server. The original song is hosted at www.guitaretab.com. Chordie works as a search engine and provides on-the-fly formatting. Chordie does not index songs against artists'/composers' will. To remove this song please click here.

Text color:
Chord color:
Chord grids: 
Font size:    
Page size: 

A2 A7sus4 B5 Cadd9 Dsus4 Dsus4/F# E Em7 F# G G2
variations - click chord images

Login - add to songbook

Transpose chords

Tuning

Rating click stars to rate

Layout
Accuracy

SHARE PAGE  




You need to log in to post comments