Guitar Tabs, Chords and Lyrics


Stop Crying Your Heart Out Live  Oasis

e|--------0----------|


B|----------0--------|


G|-------------------|

D|-------------------|
A|-------------------|
E|-------------------|
e|-------0-----------|
B|----------0--------|
G|----7--------------|
D|-------------------|
A|-------------------|
E|-------------------|
e|--------0----------|
B|------0---0--------|
G|----7--------------|
D|-------------------|
A|-------------------|
E|-------------------|
e|--------0----------|
B|---0-------0-------|
G|------7------------|
D|-------------------|
A|-------------------|
E|-------------------|
e|--------0----------|
B|---0-------0-------|
G|------7------------|
D|-------------------|
A|-------------------|
E|-------------------|..............>>
may your [Bm]smile, shine [Asus2]on,    don't be [E]scared    [Esus]
your destiny may [G]keep you warm
CHORUS:

Cause all of the[D] stars are fading[Asus4] away
try not to wor[Em7]ry you'll see them some da[G]y
take what you [D]need and be on your [Asus4]way
G (single, pause)
and stop crying your heart out...........
                     e|--------0----------|
                     B|------7--7---------|
                     G|----7--------------| 4x
                     D|-------------------|
                     A|-------------------|
                     E|-------------------|



VERSE2:

Get [Bm(add11]on,           come [Asus2]on,    why you [E]scared
you'll never change what's [G]been and gone

CHORUS:

Cause all of the [D]stars are fading [Asus4]away
try not to wor[Em7]ry you'll see them some da[G]y
take what you [D]need and be on your [Asus4]way
and stop crying your [Em7]heart out          [G]

SOLO:
e|--------0----------|
B|------7--7---------|
G|----7--------------| 16x
D|-------------------|
A|-------------------|
E|-------------------|



Cause all of the [D]stars were fading [Asus4]away
try not to wor[Em7]ry you'll see them some [G]day
take what you [D]need and be on your [Asus4]way
and stop crying your h[Em7]eart out         [G]
stop crying your h[Em7]eart out    [G]
stop crying your h[Em7]eart out    [G]
Em7 G (single, pause)
stop crying your heart out

e|--------0----------|                         |-------0------------|
B|------7--7---------|                         |-----7---7----------|
G|----7--------------| repeat  (Last time )--> |--7----------7~~~~--|
D|-------------------|                         |--------------------|
A|-------------------|                         |--------------------|
E|-------------------|                         |--------------------|


Outro:
      [D]       [Asus4]           [Em7]             [G]       [D4]                               
e|-----2-------0---------3------------3-----3--
B|----3-3-------3---------3------------0----3--
G|---2---2---2---2-----0---0--------0---0---2--
D|--0-------2-----2---2-----------0---------0--
A|-0-------0-----------------2-----------------
E|------------------0-----------3--------------


            [Asus4]          [Em7]             [G]         [D]                               
e|-2-2-------0---------3----------3---------2-----|
B|--3-3-------3---------3--------3-3--3-----3-----|
G|-----2---2---2-----0---0------0---0-------2-----|
D|--------2-----2---2-----2----0------------0-----|
A|-------0----------------------------------------|
E|----------------0----------3--------------------|


This is realy beautiful song and I hope you ENJOY IT !!!!

Important: The song above is NOT stored on the Chordie server. The original song is hosted at www.guitaretab.com. Chordie works as a search engine and provides on-the-fly formatting. Chordie does not index songs against artists'/composers' will. To remove this song please click here.

Text color:
Chord color:
Chord grids: 
Font size:    
Page size: 

Asus2 Asus4 Bm D D4 E Em7 Esus G
variations - click chord images

Login - add to songbook

Transpose chords

Tuning

Rating click stars to rate

Layout
Accuracy

SHARE PAGE  




You need to log in to post comments