Guitar Tabs, Chords and Lyrics


Do The Evolution   Pearl Jam



e: Tue, 31 Mar 1998 12:28:10 -0500



****************
Guitar Tab of
DO THE EVOLUTION
from YIELD
by PEARL JAM
****************

Transcribed by Kentaro Chiba
February 26, 1998

This is my first attempt of tab writing.
But I think it's not so poor.
I hope you enjoy playing.

The very beginning of the intro
E---------------------------
B---------------------------
G----------0-3----------0-3-
D-0--3-0-3-----0--3-0-3-----
A---------------------------
E---------------------------

Melody A
E---------------------------
B---------------------------
G----------0-3----------0-3-
D-0--3-0-3-0-1-0--3-0-3-0-1-
A-0--3-0-3-----0--3-0-3-----
E---------------------------

Melody B
E----------
B----------
G-3---2--1-
D-3---2--1-
A-3---2--1-
E----------

Melody C
E-------------------------------------------0-----------------
B-------------------------------------------3----333333-3-333-
G-------------------------------------------2----222222-2-222-
D-3-00-0-0-3-00-0-0-2-0------02------3-020--0-----------------
A----------------------3-3--3--31(0)---------------------------
E-----------------------------------3-------------------------


I am ahead
I am advanced
I am the first mammal to wear pants
I am at peace
with my lust
I can kill cause in god I trust, yeh
It's evolution, baby
I am at peace
I'm the man
buying stocks on the day of the crash...yeh
I'm a beast
I'm a truck
all the rolling hills I'll flatten'em out...yeh
It's herd behavior
It's evolution baby
I'm a thief
I'm a liar
there's my church, I sing in the choir
(hallelujah......hallelujah......)
I'm ahead
I'm advanced
I'm the first mammal to make plans
crawled the earth
now I'm higher
twenty-ten watch it go to fire
It's evolution baby
Do the evolution

Words by Ed Vedder
Music by Stone Gossard

************************************
Any corrections or comments?
Feel free to email me.
Kentaro Chiba 


Important: The song above is NOT stored on the Chordie server. The original song is hosted at www.guitaretab.com. Chordie works as a search engine and provides on-the-fly formatting. Chordie does not index songs against artists/composers will. To remove this song please click here.

This song is displayed as text-only. Transposing and tuning is only available for chordpro-songs.

Login - add to songbook

Rating click stars to rate

Layout
Accuracy

SHARE PAGE  




You need to log in to post comments