""; ?> by Unknown - guitar chords, guitar tabs and lyrics - chordie
e|-----10----(10)-----(10)---------------(10)----|----------------------|

B|-----10----(10)---11(11)-10----------10(10)----|----------------------|
G|-11------11---(10)10--------11--(11)-11----(10)|----------------------|
D|--0-------0-----0--0---------0--------0------0-|----------------------|
A|-----------------------------------------------|----------------------|
E|-----------------------------------------------|----------------------|
e|---(10)-----------(10)--------8-----8-------------|-------------------|
B|-11(11)---------10(10)-10\8-8-----8-----8-(8)8/10-|-------------------|
G|-10----(10)-11--11-----11\9-9---9-9---9-9-(9)9/11-|-------------------|
D|---------0---0----------0---0---0-----0----0------|-------------------|
A|--------------------------------------------------|-------------------|
E|--------------------------------------------------|-------------------|

 G1
e|-----10----(10)-----(10)---------------(10)------(10)|----------------|
B|-----10----(10)---11(11)-10----------10(10)----11(11)|----------------|
G|-11------11---(10)10--------11--(11)-11----(10)10----|----------------|
D|--0-------0-----0--0---------0--------0------0-------|----------------|
A|-----------------------------------------------------|----------------|
E|-----------------------------------------------------|----------------|


G1 end 2nd
e|-----------(10)--------8-----8-------------|--------------------------|
B|---------10(10)-10\8-8-----8-----8-(8)8/10-|--------------------------|
G|(10)-11--11-----11\9-9---9-9---9-9-(9)9/11-|--------------------------|
D|--0---0----------0---0---0-----0----0------|--------------------------|
A|-------------------------------------------|--------------------------|
E|-------------------------------------------|--------------------------|


*Natural Harmonic halfway between electric coil pickups
 G2
e|---------------------------------------------------------------------|
B|---------------------------------------------------------------------|
G|---------------------------------------------------------------------|
D|-29^*-----\0---------------------------------------------------------|
A|---------------------------------------------------------------------|
d|---------------------------------------------------------------------|


0:22 *Strum normally
 G1
e|---------10------------10----------10--------|------------------------|
B|-10--10-----10-----11--11-(11)-10-----10-----|------------------------|
G|-11--11-------(10)-10------10--11-------(10)-|------------------------|
D|--0-------------0---------------0------------|------------------------|
A|---------------------------------------------|------------------------|
E|---------------------------------------------|------------------------|

My lips are shakin', my nails are bit off...

G1 end 3rd
e|--------------10---------------------8-8/10-|-------------------------|
B|-11(11)----10----10-10\8-8-8-8-8-8-8-8-8/10-|-------------------------|
G|-10(10)-10-11-------11\9-9-9-9-9-9-9-9-9----|-------------------------|
D|---------0---------------0-0-0-0-0-0--------|-------------------------|
A|--------------------------------------------|-------------------------|
E|--------------------------------------------|-------------------------|

It's been a month since I heard myself talk.

*slide six fretts
 G2
e|---------------------------------------------------------------------|
B|---------------------------------------------------------------------|
G|----------------------5^\--------------------------------------------|
D|-29^-------\0-------------------------------*/-----------------------|
A|---------------------------------------------/-----------------------|
d|---------------------------------------------/-----------------------|


0:34
 G1
e|---------10--------------------10--------------|----------------------|
B|-10--10-----10-----11-(11)-10-----10----11(11)-|----------------------|
G|-11--11-------(10)-10--10--11-------(10)10(10)-|----------------------|
D|--0-------------0-----------0------------------|----------------------|
A|-----------------------------------------------|----------------------|
E|-----------------------------------------------|----------------------|

Only advantage this life's got on me...

G1 end 4th
e|----10----------------------------------------8-|---------------------|
B|-10----10-10\8-8--8-8-8-8-8-8--8--8--8--8--8--8-|---------------------|
G|-11-------11\9-9--9-9-9-9-9-9--9--9--9--9--9--9-|---------------------|
D|---------------0--0-0-0-0-0-0-10-10-10-10-10-10-|---------------------|
A|-------------------------------0--0--0--0--0--0-|---------------------|
E|------------------------------------------------|---------------------|

Picture a cup in the middle of the sea...

*slide two fretts
 G2
e|---------------------------------------------------------------------|
B|---------------------------------------------------------------------|
G|---------------------------------------------------------------------|
D|--------------------------------------------------------7-7-7-7-7-7--|
A|--------------------------------------------------------7-7-7-7-7-7--|
d|--*\----------------------------------------------------7-7-7-7-7-7--|
 Verse 0:46 *Palm mute entire measure---------------------------------|

 G1
e|----------------------------------|-----------------------------------|
B|----------------------------------|-----------------------------------|
G|-7--7-7-7-7-7-7-7-----------------|-----------------------------------|
D|-9--9-9-9-9-9-9-9-4-4-4-5-5-5-5-5-|-9--9-9-9-9-9-9-9-4-4-4-5-5-5-5-5--|
A|-9--9-9-9-9-9-9-9-4-4-4-5-5-5-5-5-|-9--9-9-9-9-9-9-9-4-4-4-5-5-5-5-5--|
E|-7--7-7-7-7-7-7-7-2-2-2-3-3-3-3-3-|-7--7-7-7-7-7-7-7-2-2-2-3-3-3-3-3--|

And I fought back in my mind... It let's me know***...

 G2
e|----------------------------------|-----------------------------------|
B|-12---------------7------8--------|-12---------------0------8---------|
G|-11---------------6------7--------|-11---------------0------7---------|
D|--9---------------4------5--------|--9---------------4------5---------|
A|--9---------------4------5--------|--9---------------4------5---------|
d|--9---------------4------5--------|--9---------------4------5---------|
  *Palm mute entire measure-------------------------------------------|

 G1
e|----------------------------------|-----------------------------------|
B|----------------------------------|-----------------------------------|
G|-7--7-7-7-7-7-7-7-----------------|-----------------------------------|
D|-9--9-9-9-9-9-9-9-4-4-4-5-5-5-5-5-|-9--9-9-9-9-9-9-9-4-4-4-5-5-5-5-5--|
A|-9--9-9-9-9-9-9-9-4-4-4-5-5-5-5-5-|-9--9-9-9-9-9-9-9-4-4-4-5-5-5-5-5--|
E|-7--7-7-7-7-7-7-7-2-2-2-3-3-3-3-3-|-7--7-7-7-7-7-7-7-2-2-2-3-3-3-3-3--|

I got memories, I got shit... So much it don't show...

 G2
e|----------------------------------|-----------------------------------|
B|-12---------------7------8--------|-12---------------7------8---------|
G|-11---------------6------7--------|-11---------------6------7---------|
D|--9---------------4------5--------|--9---------------4------5---------|
A|--9---------------4------5--------|--9---------------4------5---------|
d|--9---------------4------5--------|--9---------------4------5---------|
  Chorus 1:07 *Palm mute entire measure-------------------------------|

 G1
e|----------------------------------|-----------------------------------|
B|----------------------------------|-----------------------------------|
G|-7-7-7-7-7-7-7-7------------------|-5-5-5-5-5-5-5-5-------------------|
D|-7-7-7-7-7-7-7-7--7-7-7-7-7-7-7-7-|-5-5-5-5-5-5-5-5--5-5-5-5-5-5-5-5--|
A|-5-5-5-5-5-5-5-5--7-7-7-7-7-7-7-7-|-3-3-3-3-3-3-3-3--5-5-5-5-5-5-5-5--|
E|------------------5-5-5-5-5-5-5-5-|------------------3-3-3-3-3-3-3-3--|

I walked the line... When you held me... In the night...

 G2
e|-------0-2-2------------3-0-------|---------0--------------3----------|
B|-----3-------3--------1-----1-----|-------3---1--------------3--------|
G|---2----------------2---------2---|-----0-------0--------0------------|
D|-0----------------2---------------|---2----------------0--------------|
A|----------------------------------|-3----------------2----------------|
d|----------------------------------|------------------5----------------|
  *Palm mute entire measure-------------------------------------------|

 G1
e|----------------------------------|-----------------------------------|
B|----------------------------------|-----------------------------------|
G|-7-7-7-7-7-7-7-7------------------|-5-5-5-5-5-5-5-5-------------------|
D|-7-7-7-7-7-7-7-7--7-7-7-7-7-7-7-7-|-5-5-5-5-5-5-5-5--5-5-5-5-5-5-5-5--|
A|-5-5-5-5-5-5-5-5--7-7-7-7-7-7-7-7-|-3-3-3-3-3-3-3-3--5-5-5-5-5-5-5-5--|
E|------------------5-5-5-5-5-5-5-5-|------------------3-3-3-3-3-3-3-3--|

I walked the line... When you held my hand that night...

 G2
e|-2-----0--2--------------3--0-----|-------0--0-------------3----------|
B|-3--3-----3-----------1--1--------|----1--1--3-------------3----------|
G|-2--2-----2--------2--------------|----0----------------0-------------|
D|-------------------2--------------|-2-------------------0-------------|
A|-------------------0--------------|-3----------------2----------------|
d|----------------------------------|------------------5----------------|


solo 1:27
 G1
e|-------------10-----------10-------------------10---------------------|
B|-10(10)10-10-10-(10)10-11-11(11)-10--10-(10)11-11-11\8-8-8-8-8-8-8-8--|
G|-11(11)11-11-11-(11)11-10---(10)-11--11-(11)10----10\9-9-9-9-9-9-9-9--|
D|--0-(0)-0--0--0--(0)-0--0----(0)--0---0--(0)-0-----0-0-0-0-0-0-0-0-0--|
A|----------------------------------------------------------------------|
E|----------------------------------------------------------------------|


G2 TP TP
e|---------------------------------------------------------------------|
B|--10b(10)----------11--11--10~~---11--11--10~===p(8)-8=\5=-----------|
G|--10br~~~~~~p7-(7)----------------------------------------*9--9-9-9--|
D|---------------------------------------------------------------------|
A|---------------------------------------------------------------------|
d|---------------------------------------------------------------------|

*Octavia on: plus one additional octave lower

 G1
e|-------------10-----------10-------------------10---------------------|
B|-10(10)10-10-10-(10)10-11-11(11)-10--10-(10)11-11-11\8-8-8-8-8-8-8-8--|
G|-11(11)11-11-11-(11)11-10---(10)-11--11-(11)10----10\9-9-9-9-9-9-9-9--|
D|--0-(0)-0--0--0--(0)-0--0----(0)--0---0--(0)-0-----0-0-0-0-0-0-0-0-0--|
A|----------------------------------------------------------------------|
E|----------------------------------------------------------------------|


G2 TP TP TP \1.5/
e|----------------------------------------------------------------------|
B|-----------------11--11-11-10--------11-11-11-10----------------------|
G|-9\7--7--7-7-------------------12-10-------------12-12\10-10\9=======-|
D|-----------------------------------------------------------0======----|
A|----------------------------------------------------------------------|
d|--------------7b------------------------------------------------------|


1:48
 G1
e|----10-10--------------10--------------------------8--------|----------|
B|-10-10-10-10----11--10----10----11-10-(10)10\8---8---8-8/10-|----------|
G|-11----11-11(10)10--11------(10)10-11-(11)11\9-9-9---9-9/11-|----------|
D|-----------0------------------------0----------0------------|----------|
A|------------------------------------------------------------|----------|
E|------------------------------------------------------------|----------|

On empty shells, seems so easy to crack.
Got all the questions don't know who I could even ask...

 G2
e|---------------------------------------------------------------------|
B|---------------------------------------------------------------------|
G|==/*-----------------------------------------------------------------|
D|---------------------------------------------------------------------|
A|---------------------------------------------------------------------|
d|---------------------------------------------------------------------|

*Octavia off

 G1
e|---------10--------------10--------------10---------------------------|
B|-10-x-10----10----11--10----10----11--10----10-10\8--8-8-8-8-8-8-8-8--|
G|-11-x-11------(10)10--11------(10)10--11-------11\9--9-9-9-9-9-9-9-9--|
D|--0-x--0--------0--------------------------------------0-0-0-0-0-0-0--|
A|-------------------------------------------------------------0-0-0-0--|
E|----------------------------------------------------------------------|

So I just lie alone and wait for the dream.
Where I'm not ugly and you're lookin' at me...

 G2
e|---------------------------------------------------------------------|
B|---------------------------------------------------------------------|
G|---------------------------------------------------------------------|
D|------------------------------------------------------------7-7-7-7--|
A|------------------------------------------------------------7-7-7-7--|
d|------------------------------------------------------------7-7-7-7--|
 Verse 2:12 *Palm mute entire measure---------------------------------|

 G1
e|----------------------------------|-----------------------------------|
B|----------------------------------|-----------------------------------|
G|-7--7-7-7-7-7-7-7-----------------|-----------------------------------|
D|-9--9-9-9-9-9-9-9-4-4-4-5-5-5-5-5-|-9--9-9-9-9-9-9-9-4-4-4-5-5-5-5-5--|
A|-9--9-9-9-9-9-9-9-4-4-4-5-5-5-5-5-|-9--9-9-9-9-9-9-9-4-4-4-5-5-5-5-5--|
E|-7--7-7-7-7-7-7-7-2-2-2-3-3-3-3-3-|-7--7-7-7-7-7-7-7-2-2-2-3-3-3-3-3--|

And I stay in bed... How could I not see it?

 G2
e|----------------------------------|-----------------------------------|
B|-12---------------7------8--------|-12---------------7------8--8^-8^--|
G|-11---------------6------7--------|-11---------------6------7---------|
D|--9---------------4------5--------|--9---------------4------5---------|
A|--9---------------4------5--------|--9---------------4------5---------|
d|--9---------------4------5--------|--9---------------4------5---------|
  *Palm mute entire measure-------------------------------------------|

 G1
e|----------------------------------|-----------------------------------|
B|----------------------------------|-----------------------------------|
G|-7--7-7-7-7-7-7-7-----------------|-----------------------------------|
D|-9--9-9-9-9-9-9-9-4-4-4-5-5-5-5-5-|-9--9-9-9-9-9-9-9-4-4-4-5-5-5-5-5--|
A|-9--9-9-9-9-9-9-9-4-4-4-5-5-5-5-5-|-9--9-9-9-9-9-9-9-4-4-4-5-5-5-5-5--|
E|-7--7-7-7-7-7-7-7-2-2-2-3-3-3-3-3-|-7--7-7-7-7-7-7-7-2-2-2-3-3-3-3-3--|

If just once, I could feel loved... Oh, stare back at me... Lord...

 G2
e|----------------------------------|-----------------------------------|
B|-7----------------7-----8---------|-7----------------7-----8----------|
G|-9fb~~~~~~~-------6-----7---------|-9fb~~~~~~~-------6-----7----------|
D|------------------4-----5---------|------------------4-----5----------|
A|------------------4-----5---------|------------------4-----5----------|
d|------------------4-----3---------|------------------4-----5----------|
  Chorus 2:32 *Palm mute entire measure-------------------------------|

 G1
e|----------------------------------|-----------------------------------|
B|----------------------------------|-----------------------------------|
G|-7-7-7-7-7-7-7-7------------------|-5-5-5-5-5-5-5-5-------------------|
D|-7-7-7-7-7-7-7-7--7-7-7-7-7-7-7-7-|-5-5-5-5-5-5-5-5--5-5-5-5-5-5-5-5--|
A|-5-5-5-5-5-5-5-5--7-7-7-7-7-7-7-7-|-3-3-3-3-3-3-3-3--5-5-5-5-5-5-5-5--|
E|------------------5-5-5-5-5-5-5-5-|------------------3-3-3-3-3-3-3-3--|

I walked the line... When you held me...In the night.

 G2
e|-----2--0----------------3--3-----|-----------0---------------3-------|
B|-----------3----------------------|--------3---------------------3----|
G|---------------------2------------|-----------------------------------|
D|---0--------------2---------------|-----2------------0-----0----------|
A|-0--------------------------------|--3------------------2-------------|
d|----------------------------------|-----------------------------------|
  *Palm mute entire measure-------------------------------------------|

 G1
e|----------------------------------|-----------------------------------|
B|----------------------------------|-----------------------------------|
G|-7-7-7-7-7-7-7-7------------------|-5-5-5-5-5-5-5-5-------------------|
D|-7-7-7-7-7-7-7-7--7-7-7-7-7-7-7-7-|-5-5-5-5-5-5-5-5--5-5-5-5-5-5-5-5--|
A|-5-5-5-5-5-5-5-5--7-7-7-7-7-7-7-7-|-3-3-3-3-3-3-3-3--5-5-5-5-5-5-5-5--|
E|------------------5-5-5-5-5-5-5-5-|------------------3-3-3-3-3-3-3-3--|

I walked the line... When you held my hand that night.

 G2
e|-------2--0-------------3--0------|-----------0---------------3-------|
B|---------------------1--------1---|----1---3------------3--------3----|
G|-2--2-------------2---------------|----0-0------0-------0-------------|
D|-0----------------2---------------|-2----------------------0----------|
A|----------------------------------|-3----------------2-----2----------|
d|----------------------------------|------------------5----------------|
 *Palm mute entire measure--------------------------------------------|

 G1
e|----------------------------------|-----------------------------------|
B|----------------------------------|-----------------------------------|
G|-7-7-7-7-7-7-7-7------------------|-5-5-5-5-5-5-5-5-------------------|
D|-7-7-7-7-7-7-7-7--7-7-7-7-7-7-7-7-|-5-5-5-5-5-5-5-5--5-5-5-5-5-5-5-5--|
A|-5-5-5-5-5-5-5-5--7-7-7-7-7-7-7-7-|-3-3-3-3-3-3-3-3--5-5-5-5-5-5-5-5--|
E|------------------5-5-5-5-5-5-5-5-|------------------3-3-3-3-3-3-3-3--|

I walked the line... When you held me close at night.

 G2
e|-2--2--0------------------3-------|------------0----------------0-----|
B|-3--------3------------1----------|-1-------3-----------3----3-----3--|
G|-2------------------2-----------2-|---------------------0(0)-0--------|
D|-----------------2-----------2----|------2-----------0---(0)----------|
A|----------------------------------|---3--------------2----------------|
d|----------------------------------|-----------------------------------|
  *Palm mute entire measure-------------------------------------------|

 G1
e|----------------------------------|-----------------------------------|
B|----------------------------------|-----------------------------------|
G|-7-7-7-7-7-7-7-7------------------|-5-5-5-5-5-5-5-5-------------------|
D|-7-7-7-7-7-7-7-7--7-7-7-7-7-7-7-7-|-5-5-5-5-5-5-5-5--5-5-5-5-5-5-5-5--|
A|-5-5-5-5-5-5-5-5--7-7-7-7-7-7-7-7-|-3-3-3-3-3-3-3-3--5-5-5-5-5-5-5-5--|
E|------------------5-5-5-5-5-5-5-5-|------------------3-3-3-3-3-3-3-3--|

I paid the price... Never held you in the right...

 G2
e|-----2--0------------------3------|-------0-------------------0-------|
B|-----------3---------1--1---------|----------1----------3--0-----3----|
G|--------------2-------------------|-----------------------------------|
D|-0-0--------------2---------------|---2-------------------------------|
A|-0-0------------------------------|-3----------------2----------------|
d|----------------------------------|--------------------------------0--|


Solo 3:13 (with Wah-wah pedal)
 G1
e|-------------10-----------10-------------------10---------------------|
B|-10(10)10-10-10-(10)10-11-11(11)-10--10-(10)11-11-11\8-8-8-8-8-8-8-8--|
G|-11(11)11-11-11-(11)11-10---(10)-11--11-(11)10----10\9-9-9-9-9-9-9-9--|
D|--0-(0)-0--0--0--(0)-0--0----(0)--0---0--(0)-0-----0-0-0-0-0-0-0-0-0--|
A|----------------------------------------------------------------------|
E|----------------------------------------------------------------------|
 G2                  |-2-| |-2-| |-3-|                             \1---|
e|----------------------------------------------------------------------|
B|-6~-6~-6-6--11-/11-11p10-11p10--------11--11-11--11--10-(8)-(6)-6\5*--|
G|-7~-7~-7-7---------------------12p10----------------------------------|
D|------------------------------------12--------------------------------|
A|----------------------------------------------------------------------|
d|----------------------------------------------------------------------|

*Octavia on: plus one additional octave lower

 G1
e|-------------10-----------10-------------------10---------------------|
B|-10(10)10-10-10-(10)10-11-11(11)-10--10-(10)11-11-11\8-8-8-8-8-8-8-8--|
G|-11(11)11-11-11-(11)11-10---(10)-11--11-(11)10----10\9-9-9-9-9-9-9-9--|
D|--0-(0)-0--0--0--(0)-0--0----(0)--0---0--(0)-0-----0-0-0-0-0-0-0-0-0--|
A|----------------------------------------------------------------------|
E|----------------------------------------------------------------------|


G2 \1.5/
e|---------------------------------------------------------------------|
B|-------------------10-10(10)11-11(11)10------11(11)11-10-------------|
G|-0-12fbr12p10-12fb---------------------12fb~------------12fb~-0-2-0--|
D|-0-------------------------------------------------------------------|
A|---------------------------------------------------------------------|
d|---------------------------------------------------------------------|


 G1
e|-------------10-----------10-------------------10---------------------|
B|-10(10)10-10-10-(10)10-11-11(11)-10--10-(10)11-11-11\8-8-8-8-8-8-8-8--|
G|-11(11)11-11-11-(11)11-10---(10)-11--11-(11)10----10\9-9-9-9-9-9-9-9--|
D|--0-(0)-0--0--0--(0)-0--0----(0)--0---0--(0)-0-----0-0-0-0-0-0-0-0-0--|
A|----------------------------------------------------------------------|
E|----------------------------------------------------------------------|


 G2
e|---------------------------------------------------------------------|
B|---------------------------------------------------------------------|
G|----------10(10)10(10)-11~~-10-10(10)10-11~~-(11)\5~~-5-5-5-5-5-5-5--|
D|-5--4--0----------------------------------------------5-5-5-5-5-5-5--|
A|---------------------------------------------------------------------|
d|---------------------------------------------------------------------|

Yeah...

 G1
e|-------------10-----------10-------------------10---------------------|
B|-10(10)10-10-10-(10)10-11-11(11)-10--10-(10)11-11-11\8-8-8-8-8-8-8-8--|
G|-11(11)11-11-11-(11)11-10---(10)-11--11-(11)10----10\9-9-9-9-9-9-9-9--|
D|--0-(0)-0--0--0--(0)-0--0----(0)--0---0--(0)-0-----0-0-0-0-0-0-0-0-0--|
A|----------------------------------------------------------------------|
E|----------------------------------------------------------------------|


G2 \1/
e|-10-----10-----------------------------------------------------------|
B|----10*-------------------11~-10~-------11~-11~-11~-10~--------------|
G|-----------12-10----10-----------12-10------------------12-10-12~~==-|
D|--0--------------12----12-------------12-----------------------------|
A|--0------------------------------------------------------------------|
d|--0------------------------------------------------------------------|

*Octavia Off

 G1
e|-------------10-----------10-------------------10---------------------|
B|-10(10)10-10-10-(10)10-11-11(11)-10--10-(10)11-11-11\8-8-8-8-8-8-8-8--|
G|-11(11)11-11-11-(11)11-10---(10)-11--11-(11)10----10\9-9-9-9-9-9-9-9--|
D|--0-(0)-0--0--0--(0)-0--0----(0)--0---0--(0)-0-----0-0-0-0-0-0-0-0-0--|
A|----------------------------------------------------------------------|
E|----------------------------------------------------------------------|


G2 TP...\
e|-10-------------------12b13-13----12b13r12-13-12--10------10-10-------|
B|----13fb-13fbr13fb-11~---------11-------------------13pb15==(13)=r13--|
G|----------------------------------------------------------------------|
D|----------------------------------------------------------------------|
A|----------------------------------------------------------------------|
d|----------------------------------------------------------------------|


 G1
e|-------------10-----------10-------------------10---------------------|
B|-10(10)10-10-10-(10)10-11-11(11)-10--10-(10)11-11-11\8-8-8-8-8-8-8-8--|
G|-11(11)11-11-11-(11)11-10---(10)-11--11-(11)10----10\9-9-9-9-9-9-9-9--|
D|--0-(0)-0--0--0--(0)-0--0----(0)--0---0--(0)-0-----0-0-0-0-0-0-0-0-0--|
A|----------------------------------------------------------------------|
E|----------------------------------------------------------------------|


 G2
e|------------12b13-------------12--12fbr-10-----10-----12-----12-------|
B|-10h13-10-10-----11---11~-10~---11--------13b15--15b17--15b17---17fb--|
G|-------------------10-------------------------------------------------|
D|----------------------------------------------------------------------|
A|----------------------------------------------------------------------|
d|----------------------------------------------------------------------|


Outro(4:14)
 G1
e|----------------10--------------10-------------8----------|-----------|
B|-10--10--11--10-10-10-10-11--10-10-10-10\8-8-8-8-8---8/10-|-----------|
G|-11--11--10--11-------11-10--11----11-11\9-9-9---9-9-9/11-|-----------|
D|----------------------------------------------------------|-----------|
A|----------------------------------------------------------|-----------|
E|----------------------------------------------------------|-----------|


 G1
e|-10------10----10-------------------------------8-----------10---10--|
B|-10--10--10-10-10----11--10--11-----10-10\8-8-8-8-8---8/10--11---10--|
G|-11--11--11-11---(10)10--11--10(10)-11-11\9-9-9---9-9-9/11--10-x-11--|
D|------0------0-----------------------------------------------0-x-----|
A|---------------------------------------------------------------------|
E|---------------------------------------------------------------------|

My lips are shakin'...
Song Ends 4:51

***Lyrics vary in live performances, particularly soldier field in 1995.
Did it all in one night.. phew! My head's a spinnin'.

Tab Notations:

- = string

~ = vibrato
/ = slide up
\ = slide down
h = hammer-on
p = pull-off
tr = trill
b = bend (to indicated frett or 1/4 step if not specified)
fb = full bend (1 step)
pb = pre-bend (bend before striking
= = hold bend or sustain note
r = release bend
x = string noise (tap)
(#)= mute string (after striking)
^ = natrual harmonic
+ = artificial harmonic
TP = tremelo pick
\n/= whammy dive (n= amount to dip)
* = as noted

Comments?


G2
variations - click chord images
Transpose chords:
Tuning:
Cool service:
View: Size:
A  A  A
Rating:
Layout:
  • Currently 2.3/5 Stars.
  • 1
  • 2
  • 3
  • 4
  • 5
 
Accuracy:
  • Currently 2.6/5 Stars.
  • 1
  • 2
  • 3
  • 4
  • 5
 
click stars to rate
Chordie recommends:
Check out JamPlay.com for online video guitar lessons
Songbook:
Login to add this song to your songbook
Support the artist
Preview/buy this song
MSN Music
Why this non-profit ad?

 
login to add comments/video/corrections

All1Song (report video to admin):
Solo acoustic version:
ERROR: If you can see this, then YouTube is down or you don't have Flash installed.