Guitar Tabs, Chords and Lyrics


Oceans   Pearl Jam



Song: Oceans
Band: Pearl Jam
Album: Ten
Tabbed by: Silvia Diaz wwconspiracy@hotmail.com

Standard tunning EADGBe
I know about two ways of playing this song, but i'll tab this one
Intro - verse
   G         C#  C#
e|--------------------------------------|
B|--------------------------------------|
G|-7---------11--12---------------------|
D|-7---------11--11---------------------|
A|-5---------11--11---------------------|
E|-----------9---9----------------------| let ring each note
Hold on . ..the trend
Currents ...glide me
You know..  left..
All allowed..to dream of
                                          X6 - i think
e|------------------------------------------------------------------|
B|------------------------------------------------------------------|
G|-12-----------------------7--------7----10------------------------|
D|-12-----------------------7--------7----10------------------------|
A|-10-----------------------5--------5----8-------------------------|
E|------------------------------------------------------------------|
 Oh the next...        ...touch...  oh
(listen the song for timing, strum as many times as needed, but dont repeat G after 
until he stops singing the "oh.." part)

when Eddie ends singing "oh..." then you play
e|-------------|
B|-------------|
G|-12----------|
D|-12----------|
A|-10----------|
E|-------------|  many times until the next verse

e|--------------------------------------|
B|--------------------------------------|
G|-7---------11--12---------------------|
D|-7---------11--11---------------------|
A|-5---------11--11---------------------|
E|-----------9---9----------------------| let ring each note
 You         stray
 oceans     waves roll
 thoughts   the ring...
 The sea    Please stand

e|------------------------------------------------------------------|
B|------------------------------------------------------------------|
G|-12-----------------------7--------7----10------------------------|
D|-12-----------------------7--------7----10------------------------|
A|-10-----------------------5--------5----8-------------------------|
E|------------------------------------------------------------------|
shore ..i will be        once more
(listen the song for timing, strum as many times as needed, but dont repeat G after 
until he stops singing the "oh.." part)


when Eddie ends singing "oh..." then you play at the end
e|--------------------------------------|
B|--------------------------------------|
G|----------11--12--12--11--12-----7----|
D|----------11--11--11--11--11-----7----|
A|----------11--11--11--11--11-----5----|


Important: The song above is NOT stored on the Chordie server. The original song is hosted at www.guitaretab.com. Chordie works as a search engine and provides on-the-fly formatting. Chordie does not index songs against artists/composers will. To remove this song please click here.

This song is displayed as text-only. Transposing and tuning is only available for chordpro-songs.

Login - add to songbook

Rating click stars to rate

Layout
Accuracy

SHARE PAGE  




You need to log in to post comments