Chordie logo

Every Day People   Pearl Jam










Author/Artist: Pearl Jam
Title: Every Day People
Album: Cover of Sly and the Family Stone
Transcribed by: Thiago Oliveira da Costa
Email: MikeMcCready@hotmail.com

Easy but cool song to play.

Intro 
|--3--------------------------------------------------------------------
|--3--------------------------------------------------------------------
|--4--------------------------------------------------------------------
|--5--------------------------------------------------------------------
|--5--------------------------------------------------------------------
|--3--------------------------------------------------------------------

Whole Song
|--3-----3--------------------------------------------------------------
|--3-----3--------------------------------------------------------------
|--4--5--4--------------------------------------------------------------
|--5--5--5--------------------------------------------------------------
|--5--3--5--------------------------------------------------------------
|--3-----3--------------------------------------------------------------

Riff at 02:48
|--3--------------------------------------------------------------------
|--3--------------------------------------------------------------------
|--4--------------------------------------------------------------------
|--5----12h1412v--------------------------------------------------------
|--5--------------------------------------------------------------------
|--3--------------------------------------------------------------------

Riff at the end
|--3-----------------------3------------15------------------------------
|--3-----------------------3--------/15---------------------------------
|--4-----------------------4--------------------------------------------
|--5----12h1412------------5--------------------------------------------
|--5-------------14-12/10--5--------------------------------------------


Important: The song above is NOT stored on the Chordie server. The original song is hosted at www.guitaretab.com. Chordie works as a search engine and provides on-the-fly formatting. Chordie does not index songs against artists/composers will. To remove this song please click here.

This song is displayed as text-only. Transposing and tuning is only available for chordpro-songs.

Login - add to songbook

Rating click stars to rate

Layout
Accuracy

SHARE PAGE  



You need to log in to post comments