Whots Uh The Deal

Pink Floyd

|-------3---------|-------2---------|-------1---------|-------0---------|--|

|-----3---3-------|-----3---3-------|-----3---3-------|-----3---3-------|--|
|---4-------4---4-|---0-------0---0-|---0-------0---0-|---0-------0---0-|--|
|-5-----------5---|-4-----------4---|-3-----------3---|-2-----------2---|--|
|-----------------|-----------------|-----------------|-----------------|--|
|-----------------|-----------------|-----------------|-----------------|--|
|-------0---------|-----------------|-------2---------|-2---0-0-0-0-----|
|-----0---0-------|-----------------|-----1---1-------|-1---1-1-1-1-0---|
|---0-------0---0-|---0---0---0---0-|---2-------2---2-|-----2-2-2-2-0---|
|-1-----------1---|-0---1---2---1---|-0-----------0---|---0-0-0-0-0-0---|
|-----------------|-----------------|-----------------|-----------------|
|-----------------|-----------------|-----------------|-----------------|
---3--- ---1--- ---0--- ---0--- ---0--- ---2--- ---3---
---3--- ---3--- ---1--- ---0--- ---1--- ---1--- ---1---
---0--- ---0--- ---0--- ---0--- ---2--- ---2--- ---2---
---0--- ---3--- ---2--- ---2--- ---2--- ---0--- ---0---
---2--- ---x--- ---3--- ---2--- ---0--- ---x--- ---x---
---3--- ---x--- ---x--- ---0--- ---x--- ---x--- ---x---

 D9
    ---0---|
    ---1---|
    ---2---|
    ---0---|
    ---x---|
    ---x---|


Chorus I

 GG7CEAm
...So let me in from the cold  Turn my lead into gold

 GG7
'Cause there's a chill wind blowin' in my soul and I think I`m

 D7D9
 growing old  

Chorus II

 GG7CEmAm
Hear me shout come on in  What's the news, where've you been

 GG7D7D9
'Cause there's no wind left in my soul and I've grown old  

Sometimes, the last chords in the chorus go something like this:

 D7D7sus4D7D9D7
- Steve Schablitsky


Am C D7 D7sus4 D9 E Em G G7
variations - click chord images
Transpose chords:
Tuning:
Cool service:
View: Size:
A  A  A
Rating:
Layout:
  • Currently 2.4/5 Stars.
  • 1
  • 2
  • 3
  • 4
  • 5
 
Accuracy:
  • Currently 2.6/5 Stars.
  • 1
  • 2
  • 3
  • 4
  • 5
 
click stars to rate
Chordie recommends:
Learn to play guitar with video-based, online guitar lessons at JamPlay.com
Songbook:
Login to add this song to your songbook
Support the artist
Preview/buy this song
MSN Music
Why this non-profit ad?

 
login to add comments/video/corrections