""; ?> Normal by Porcupine Tree - guitar chords, guitar tabs and lyrics - chordie
E|---------0--0-------------------0--0----------|

B|-2h3h2-0--0--0----------2h3h2-0--0--0---------|
G|------3-2--0---------0-------3-2--0---------2-|
D|---------------2-0-2------------------2-0-2-2-|
A|------------------------------------------0---|
E|----------------------------------------------|

 Asus2-Em
Guitar One : (once, then with lyrics)
Figure 1
E|----------------------------------------------------------------------|
B|-1h0--0--0--0--0--1h0--0--0--0--0--1h0--0--0--0--0--1h0--0--0--0--0---|
G|----0--0--0--0--0----0--0--0--0--0----2--2--2--2--2----2--2--2--2--2--|
D|-----2--2--2--2--2----2--2--2--2--2----2--2--2--2--2----1--1--1--1--1-|
A|----------------------------------------------------------------------|
E|----------------------------------------------------------------------|


Here is my car, my phone and my TV
I've got it all, but you can see through me

Guitar 2 (chords):

Em Asus2 A*
But am I here? It's kind of hard to tell
Em Asus2 A*
I do a good impression of myself
 C7Asus2
 But what's normal now, anyhow?

Chorus :

 Em1Em2
 Sullen and bored the kids stay
 C7Asus2
And in this way 'wish away, each day        
 Em1Em2
 Stone in the mall the kids play
 C7Asus2
And in this way 'wish away, each day

 Asus2-Em
G1 : Figure 1
G2 : Em-Asus2-A*

Em Asus2 A*
Prescription drugs, they help through the day
Em Asus2 A*
And that restraining order, keeps me well, at bay
 C7Asus2
 But what's normal now, anyway?

Chorus (twice with interlude)

 Asus2-Em
Interlude : Figure 1 x3

Then G2:

E|-------------------------------------------------------------------------|
B|-------------------------------------------------------------------------|
G|-------------------------------------------------------------------------|
D|-------------------------------------------------------------------------|
A|-------------------------------------------------------------------------|
E|-000-222-333-000-222-333-777-666-000-222-333-000-222-333-777-666-555-333-|
------------------------------------------------------------------------------|
------------------------------------------------------------------------------|
------------------------------------------------------------------------------|
---------------------------------------------------------------------7-7---7--|
------------------------------------------------------------------------------|
-000-222-333-000-222-333-777-666-000-222-333-000-222-333-777-666-5-55-5-5-5-55|


G1:

 EmGDDsus2DDsus2
 Wish I was old and a littlesentimental        (Wish I waaaas) x4
 C7EmGDDsus2DDsus2
 Wish I was old and a littlesentimental        (You gotta see the waves, not the
wine in bottle, the waves now) x4
 Em
 The waves now

Solo x3

E|-----------0-----------------0-----------------------------000---0-|
B|-----------0-----------------0-------0-------3-------------555---0-|
G|-----------2-0h2h0-----------0-----0---2-2-0---4-0-2-0-2s4-444-4-0-|
D|-----------2-------4-0-------0-2-4-------------------------------2-|
A|-------2-0-0-----------------2-----------------------------------2-|
E|-0-2-3-----0-----------3-0-3-3-----------------------------------0-|


 EmGDDsus2DDsus2
 Wish I was old and a littlesentimental      x2
 C7EmGDDsus2DDsus2
 Wish I was old and a littlesentimental        (You gotta see the waves, not the
wine in bottle, the waves now)x2

Outro :
Introduction x4

E|-----------------3--0---7-0-0---0-0-|
B|---------3-0-5-0--0--0-------0--0-0-|
G|-2h3h2-0----0---0--0--0-------0-2-0-|
D|--------2-----------------------2-2-|
A|--------------------------------0-2-|
E|--------------------------------0-0-|


Enjoy! Mr.A.**1987**


Asus2 C7 D Dsus2 Em G
variations - click chord images
Transpose chords:
Tuning:
Cool service:
View: Size:
A  A  A
Rating:
Layout:
  • Currently 2/5 Stars.
  • 1
  • 2
  • 3
  • 4
  • 5
 
Accuracy:
  • Currently 3.1/5 Stars.
  • 1
  • 2
  • 3
  • 4
  • 5
 
click stars to rate
Chordie recommends:
Learn to play songs at Jamplay.com with video guitar lessons
Songbook:
Login to add this song to your songbook
Support the artist
Preview/buy this song
MSN Music
Why this non-profit ad?

 
login to add comments/video/corrections