Chordie logo

Zwitter   Rammstein



Rammstein - Zwitter guitar tab

Intro / Verse
Sampled guitar
e|-----------------------------------------------------------------|
B|-----------------------------------------------------------------|
G|*---------------------------------------------------------------*|
D|*---------------------------------------------------------------*|x4
A|-----------------------------------------------------------------|
D|--0---0---0---0---0---0---5---3---0---0---0---0---0---1---1---0--|


Main riff
e|-----------------------------------------------------------------|
B|-----------------------------------------------------------------|
G|*---------------------------------------------------------------*|
D|*-------------------------5---3-------------------0---1-------0-*|
A|--0---0---0---0---0---0---5---3---0---0---0---0---0---1-------0--|
D|--0---0---0---0---0---0---5---3---0---0---0---0---0---1---1---0--|
pm  .   .   .   .   .   .           .   .   .   .           .


Chorus
e|-----------------------------------------------------------------|
B|-----------------------------------------------------------------|
G|*-8---8---8---8---8---8---8---8---5---5---5---5---5---5---5---5--|
D|*-8---8---8---8---8---8---8---8---5---5---5---5---5---5---5---5--|
A|--6---6---6---6---6---6---6---6---3---3---3---3---3---3---3---3--|
D|-----------------------------------------------------------------|


e|-----------------------------------------------------------------|
B|-----------------------------------------------------------------|
G|--3---3---3---3---3---3---3---3---3---3---3---3------------------|
D|--3---3---3---3---3---3---3---3---3---3---3---3-----------1---3--|
A|--1---1---1---1---1---1---1---1---1---1---1---1---1---3----------|
D|-----------------------------------------------------------------|


e|-----------------------------------------------------------------|
B|-----------------------------------------------------------------|
G|--8---8---8---8---8---8---8---8---5---5---5---5---5---5---5---5--|
D|--8---8---8---8---8---8---8---8---5---5---5---5---5---5---5---5--|
A|--6---6---6---6---6---6---6---6---3---3---3---3---3---3---3---3--|
D|-----------------------------------------------------------------|


e|-----------------------------------------------------------------|
B|-----------------------------------------------------------------|
G|----------------------------------------------------------------*|
D|--5---5---5---5---5---5---5---5---5---5---5---5---5---5---5---5-*|
A|--5---5---5---5---5---5---5---5---5---5---5---5---5---5---5---5--|
D|--5---5---5---5---5---5---5---5---5---5---5---5---5---5---5---5--|


Quiet solo during the chorus
Richard (tremolo picking, downstrokes only)
[ With ?WAH-WAH? ]
e|---------------------------------------------------------------|
B|---------------------------------------------------------------|
G|--12---13-12-8------7---8-7------12---13-12-8---7--------------|
D|---x----x--x-x------x---x-x-8-----x----x--x-x---x---8---6---5--|
A|--10---11-10-6------5---6-5-x----10---11-10-6---5---x---x---x--|
D|----------------------------8-----------------------8---6---5--|


pm . - palm mute



Important: The song above is NOT stored on the Chordie server. The original song is hosted at www.guitaretab.com. Chordie works as a search engine and provides on-the-fly formatting. Chordie does not index songs against artists/composers will. To remove this song please click here.

This song is displayed as text-only. Transposing and tuning is only available for chordpro-songs.

Login - add to songbook

Rating click stars to rate

Layout
Accuracy

SHARE PAGE  

You need to log in to post comments