Guitar Tabs, Chords and Lyrics


One I Love  R.E.M

|-------------------0---------0-----------0------0----0---0-----|


|-----------------------3/5------0------------3-----0---0-------|


|---------------------------------------------------------------|

|-------------0-------------------------------------------------|
|---------0-----------------------------------------------------|
|-0-0-2/3----------------------------0--------------------------|
[Em]This one goes out to[Dsus2] the one I l[Em]ove
This one goes out t[Dsus2]o the one I've l[Em]eft behind
[G]A simple[Dsus4] prop  [Dsus2]
To oc[C]cupy my time
[Em]This one goes out to[Dsus2] the one I l[Em]ove
[Em]Fire ....[Dsus2]............[Em]
[Em]Fire ....[Dsus2]............[Em]
[Em]Fire (she's comin'[Dsus2] down on her [Em]own, now)
[Em]Fire (she's comin'[Dsus2] down on her [Em]own, now)
Solo -
|------------------------------------------------------------------------|
|--------3----5--3---------3------5--3---------3-----5--3---3/5----------|
|---2/4----4--------2/4-------4---------2/4-------4----------------------|
|------------------------------------------------------------------------|
|------------------------------------------------------------------------|
|------------------------------------------------------------------------|
|----------------------------------------------------------0-------------|
|--3--0-----------------------------3-------------------0------3---------|
|--------2--0-----------0---0--2/4-----2H4--2P---------------------------|
|-------------2--0---2----2----------------------2P--2-----------------2-|
|------------------------------------------------------------------------|
|-----------------------------------------------------------------3BU----|


[Em]This one goes out to[Dsus2] the one I l[Em]ove
This one goes out t[Dsus2]o the one I've l[Em]eft behind
[G]Another [Dsus4]prop   [Dsus2]
Has occu[C]pied my time
[Em]This one goes out to[Dsus2] the one I l[Em]ove

[Em]Fire (she's comin'[Dsus2] down on her [Em]own, now)
[Em]Fire (she's comin'[Dsus2] down on her [Em]own, now)
[Em]Fire (she's comin'[Dsus2] down on her [Em]own, now)
[Em]Fire (she's comin'[Dsus2] down on her [Em]own, now)
/ - Slide
H - Hammer On
P - Pull Off
BU - Bend Up
BD - Bend Down

Important: The song above is NOT stored on the Chordie server. The original song is hosted at www.guitaretab.com. Chordie works as a search engine and provides on-the-fly formatting. Chordie does not index songs against artists'/composers' will. To remove this song please click here.

Text color:
Chord color:
Chord grids: 
Font size:    
Page size: 

C Dsus2 Dsus4 Em G
variations - click chord images

Login - add to songbook

Transpose chords

Tuning

Rating click stars to rate

Layout
Accuracy

SHARE PAGE  




You need to log in to post comments