Easy Plateau

Ryan Adams

-------------------------------------------------------------------------------

-------------------------------------------------------------------------------
E|---------0------|
B|-----2/3-3h5----|
G|----------------| x2
D|----------------|
A|----------------|
E|----------------|
E|---------0---------0------------|
B|-----2/3-3h5------3h5/8--7------|
G|--------------------------------|
D|--------------------------------|
A|--------------------------------|
E|--------------------------------|
E|---------0---------0---------------------------------|
B|-----2/3-3h5------3h5-8--7---8p7--5-3--3p2-----------|
G|----------------------------------------------2------|
D|-----------------------------------------------------|
A|-----------------------------------------------------|
E|-----------------------------------------------------|
E|---------0---------0------------------------------------|
B|-----2s3-3h5------3h5-8--7---8p7--5-3--3p2--------------|
G|----------------------------------------------2--0------|
D|--------------------------------------------------------|
A|--------------------------------------------------------|
E|--------------------------------------------------------|

 AEmAEm
 Let's take a ride to the easy plateau          
 AEmG
Where the cold don't come and the wind don't blow                     
 AEmAEm
 Moonlight flickers on the water below               
 AEmG
 The orange grove blossoms in the orange grove                         

(Pre-CHORUS and CHORUS)

D G (hit twice)
Bad nights lead to better days
D (pause in guitar)
It doesn't matter but I think about is anyways
 AGDAGD
 I want an easy plateau, Some place to rest my head                            
 AGDAGD
 I want an easy plateau, Some place to rest my head                            
 A
 For awhile, for awhile, for awhile, for a little while

(repeat intro)

(Verse 2 - same chord progression)

sleepyhead, come on lets take a ride
to the easy plateau in the back of your mind
up through the alley take the door under the stairs
my head ain't feeling nothing but cats and rocking chairs

(Pre-chorus and chorus)

Bad nights lead to better days
It never happens but I think about it anyways
I want an easy plateau, Some place to rest my head
I want an easy plateau, Some place to rest my head
For awhile, for awhile, for awhile, for a little while

(Bridge)

D Dsus4 D Dsus4 D (x2)

 DDsus4D
 How do I hold on to you,              
 DDsus4D
 if I can't hold on to me            
 BmDsus4D
 How do I hold on to you             
 BmDsus4D
 I want an easy plateau                
 BmD
 Some place to rest my head             

For a little while

(verse chords are then played w/solo that starts with intro riff)

I want an easy plateau, some place to rest my head
I want an easy plateau, some place to rest my head
Easy plateau

(Corrections/additions welcome! Especially if someone wants to tab out the solo!)

 Dsus4
e|----3----------|
B|----3----------|
G|----2----------|
D|----0----------|
A|---------------|
E|---------------|


| / slide up
| \ slide down
| h hammer-on
| p pull-off
| ~ vibrato
| + harmonic
| x Mute note
===============================================================================


A Bm D Dsus4 Em G
variations - click chord images
Transpose chords:
Tuning:
Cool service:
View: Size:
A  A  A
Rating:
Layout:
  • Currently 2.3/5 Stars.
  • 1
  • 2
  • 3
  • 4
  • 5
 
Accuracy:
  • Currently 2.2/5 Stars.
  • 1
  • 2
  • 3
  • 4
  • 5
 
click stars to rate
Chordie recommends:
Get acoustic guitar lessons and electric guitar lessons at JamPlay.com
Songbook:
Login to add this song to your songbook
Support the artist
Preview/buy this song
MSN Music
Why this non-profit ad?

 
login to add comments/video/corrections