Guitar Tabs, Chords and Lyrics


Relaku Pujuk Spider  Xpdc

---------------------------------------------------------------|


---------------------------------------------------------------|


-------------6-------------777-6-4-4/7-------------------------|

---------4-7---7---7-------------------------------------------|
--555--7---------9---7/9---------------------------------------|
---------------------------------------------------------------|
------------10-------------------------------------------------|
-------7-10----10-7---7---/10--5--/7--3------------------------|
--7-9---------------9-----/9---6--/7--4----12------------------|
-------------------------------------------12------------------|
-------------------------------------------10------------------|
---------------------------------------------------------------|
Di[D]kejar bay[A]ang-bayang r[Bm]esah
Bi[G]la hatimu [F#]masih tak be[D]rubah
Enggan d[G]i puny[A]a dan [Bm]di penja[G]ra
Bel[A]aian cintaku [D]ini  [A]
Ak[D]u bukan le[A]laki yang t[Bm]ewas
Bisa men[G]yembah wa[F#]lau ku di t[D]olak
Biar [G]di u[A]ji kanan [Bm]dan kir[G]i
Kau [A]kan tetap ku mi[D]liki
-----0--------0--------0------------------------------------------|
----3-3-3----3-3-3----3-3-2----3--2-------------------------------|
---2---2----2---2----2---2-----4--2-------------------------------|
--0----------------------------5--2-------------------------------|
-----------1--------2----------5--0-------------------------------|
-------------------------------3----------------------------------|


(Korus)

Ti[D]ada lafas ya[A]ng lebih [Bm]agung
Kali[G]mah cinta[D]mu yang k[A]u tunggu t[Bm]unggu [A]
Bi[D]ar jasadk[A]u yang men[Bm]anggung
Permai[G]nan dari[D]mu rela [A]ku pu[Bm]juk [Bb]

Ja[D]nganlah kau sa[A]lahkan ak[D]u
Terus [G]memburu [F#]menawan cinta[D]mu
Daku p[G]ercay[A]a sediki[Bm]t mas[G]a
Ka[A]u kecundang akhirn[D]ya
Usahl[G]ah kau ber[A]sedih di hada[Bm]panmu aku h[D]adir
Memada[Em]m resah dan cur[A]iga dari hat[D]imu oh...
Apak[G]ah kali in[A]i bisa kau [Bm]tolak dan berl[D]ari
Setela[Em]h aku menanamkan [A]azimatku

Important: The song above is NOT stored on the Chordie server. The original song is hosted at www.guitaretab.com. Chordie works as a search engine and provides on-the-fly formatting. Chordie does not index songs against artists'/composers' will. To remove this song please click here.

Text color:
Chord color:
Chord grids: 
Font size:    
Page size: 

A Bb Bm D Em F# G
variations - click chord images

Login - add to songbook

Transpose chords

Tuning

Rating click stars to rate

Layout
Accuracy

SHARE PAGE  




You need to log in to post comments