Guitar Tabs, Chords and Lyrics


Sad song  Oasis



[CBORDS USED] 
Am - x02210
C - 032010
Esus4 - 022200
E - 022100
G - 320033
C* - 032033
D - xx0232
D* - xx0233
F* - x03210
[INTRO] 

E|--0---0-0---0-0-----0-0-0--0---0-0-0----| REPEAT x3
B|--1---1-1---1-1/3---3-3-3--1---1-1-1----|
G|--0---0-0---0-0-----0-0-0--0---0-0-0----|
D|--2---2-2---2-2/4---4-4-4--2---2-0-0----|
A|--3---3-3---3-3/5---5-5-5--3---3-2-2----|
E|--0---0-0---0-0-----0-0-0--0---0-3-3----|
E|--0------0------0------0-------0-0-0-0-0-0-0-0---|
B|--1------1------1------1-------1-1-1-1-1-1-1-1---|
G|--0----0-0----0-0----0-0----0--2-2-2-2-2-2-2-2---|
D|--2--2---0--0---0--0---0--0----2-2-2-2-2-2-2-2---|
A|--3------3------2------0-------0-0-0-0-0-0-0-0---|
E|--0------0------0------0-------------------------|

[VERSE] 

Sing a [Am]sad song in a [C]lonely place,
and [Esus4]try to put a word in for [E]me.[G]
It's been [Am]so long since i [C]found a space,
you [Esus4]better put in two or [E]thr[G]ee.
We as [Am]people are just [C]walking round,
our [Esus4]heads are firmly stuck in the [E]gro[G]und.
What we [Am]don't see well it [C]can't be real,
what [Esus4]we don't touch we cannot [E]fee[G]l.
[CBORUS] 
[G]While we're living,
C*
in this town,
the [Am]sun is coming up and it's [E]going down,
but it's [C]all,
just the [G]same,
D D* D
at the end of the day.
Well we [G]cheat,
C*
and we lie.
No[Am]body says its wrong so we [E]don`t ask why,
cause it's [C]all,
just the [G]same,
D D* D
at the end of the day.
F* C
throwing it all away,
F* C
throwing it all away,
F* C
throwing it all away,
at the end of the [Esus4]day.[E]
[REPEAT INTRO TAB] 
[TBE REST OF TBE SONG IS TBE SAME] 

Important: The song above is NOT stored on the Chordie server. The original song is hosted at www.lindesign.se. Chordie works as a search engine and provides on-the-fly formatting. Chordie does not index songs against artists'/composers' will. To remove this song please click here.

Text color:
Chord color:
Chord grids: 
Font size:    
Page size: 

Am C E Esus4 G
variations - click chord images

Login - add to songbook

Transpose chords

Tuning

Rating click stars to rate

Layout
Accuracy

SHARE PAGE  




You need to log in to post comments