Guitar Tabs, Chords and Lyrics


Naked   Reef









----------------------------------------------------------------------------

NAKED - Reef
Reef are a brilliant new, modern rock band. This is their single. The low E string is tuned down to an even lower D.

 The main riff is :

 e--|-------------------------|
 B--|-------------------------|
 G--|-----5-------------------|
 D--|--/7---7p5---------------|
 A--|-----------8p5---3-x-x-5-|
 D--|---------------0---------|

That is played three times over and then twice in quick succession without the last two notes (C & D).

 The next chords are palm muted :

 e---------|-----------------|-----------------|
 B---------|-----------------|-----------------|
 G---------|-----------------|-----------------|
 D---------|-3-3-3-3-3-3-3-3-|-5-5-5-5-5-5-5-5-|
 A---------|-3-3-3-3-3-3-3-3-|-5-5-5-5-5-5-5-5-|
 D---------|-3-3-3-3-3-3-3-3-|-5-5-5-5-5-5-5-5-|

 so would you go with me - - -       I'll blow you away!

 e--|-----10-----------|-----10-----------|
 B--|-----10-----------|-----10-----------|
 G--|-----10-----------|-----10-----------|
 D--|------------------|------------------|
 A--|----------3-x-x-5-|----------3-x-x-5-|
 D--|-0-0--------------|-0-0--------------|

Thats actually about it. I haven't tabbed it out very well, but I know it's all correct. The guitar is a Fender Strat set on the rhythm pickup. It's pretty heavily distorted, and hasn't got much middle on it.

-- 
Matt Harvey
EMail : harvey@harve.demon.co.uk

... Back up my hard disk? I cann't find the reverse switch!



Important: The song above is NOT stored on the Chordie server. The original song is hosted at www.lindesign.se. Chordie works as a search engine and provides on-the-fly formatting. Chordie does not index songs against artists'/composers' will. To remove this song please click here.

This song is displayed as text-only. Transposing and tuning is only available for chordpro-songs.

Login - add to songbook

Rating click stars to rate

Layout
Accuracy

Jango Player

SHARE PAGE  




You need to log in to post comments